Oops, an error
Loading. Please wait.

Boyfriend Bass Tab

2,952 views 1 this week
2 commentsread comments
1 2 3 4 5
excellent!
x 3
add to favorites
launch autoscroll
font size
0
reset
guitar tuner
Tab Pro tools
  • play this tab
  • loop segment
  • change instrument
  • show fretboard
  • metronome
×
Best way to learn
"Boyfriend"
Autoscroll
slow
fast
+/-
esc
set tempo
stop
Contributor
#############################################
#        Tabbed by: Pack                    #
# This is my first tab ever, so there may   #
# be some faults, especially in the chorus, #
# but I hope you will enjoy :)              #
#                                           #              
#############################################

Intro        x2

G [---------------------------]
D [---------------------------]
A [-2-------------------------]
E [-----5-3---32-0---2-3---35-]

Verse 1      x2

G [-------------------------------]
D [--------------------2-4--------]
A [-2-2---------------------------]
E [----3-3-5-5-2-20-0-0-0-3-3-5-5-]

Bridge A     x2

G [--------------------------------]
D [---------------2-2-2020-5-5-7-7-]
A [-2---2456---4-6-----------------]
E [--------------------------------]

Just before chorus

G [-----3-3-]
D [-4-4-----]
A [---------]
E [---------]

Chorus       x2

G [---4-----------------2---2----------]
D [--------2---4---4------------5--4-4-]
A [-2---2-------------0---0------------]
E [------0--02---2------------3--3-----]

Intro        x1
 
G [---------------------------][--]
D [---------------------------][--]
A [-2-------------------------][-2]
E [-----5-3---32-0---2-3---35-][--]

Verse 2      x1

G [------------------------------][-------------------------------]
D [-------------------2-4--------][--------------------2-4--------]
A [------------------------------][-2-2---------------------------]
E [-12slide to 2-0-0-0-0-3-3-5-5-][----3-3-5-5-2-20-0-0-0-3-3-5-5-]

Bridge A     x1

G [--------------------------------]
D [---------------2-2-2020-5-5-7-7-]
A [-2--2456---4-6------------------]
E [--------------------------------]

Just before chorus

G [-----3-3-]
D [-4-4-----]
A [---------]
E [---------]

Chorus       x1

G [---4-----------------2---2----------]
D [--------2---4---4------------5--4-4-]
A [-2---2-------------0---0------------]
E [------0--02---2------------3--3-----]

Chorus       x1

G [---4-----------------2---2-----3-]
D [--------2---4---4------------5---]
A [-2---2-------------0---0---------]
E [------0--02---2------------3--3--]

Bridge B     x1

G [---------------]
D [---------------]
A [-4-5-4-5-4-5-4-]
E [---------------]

Bridge C     x2
Bass first comes in at 2:30

G [------------------------------------------------------------]
D [------------------------------------------------------------]
A [-------------------------------5-6-7--10-9-7--5-6-7--10-9-7-]
E [-5-6-7--10-9-7--5-6-7--10-9-7-------------------------------]
                                                        [-3-5-] On second time

Chorus       x2

G [---4-----------------2---2----------]
D [--------2---4---4------------5--4-4-]
A [-2---2-------------0---0------------]
E [------0--02---2------------3--3-----]

Intro        x2
 
G [---------------------------]
D [---------------------------]
A [-2-------------------------]
E [-----5-3---32-0---2-3---35-]

Last Intro   x1
 
G [------------------------------]
D [------------------------------]
A [-2----------------------------]
E [-----5-3---32-0---12slide to 3]
comments
We did not receive enough feedback on this tab! Please rate:
print report bad tab
1 2 3 4 5
2 comments total.
+1 reply
Samuelf wrote on January 10 2008, 12:02 pm

I made this tab before signing up, and I found out that i couldn't be named Pack, so if anyone has any questions
regarding the tab, just send a comment to me.

0 reply
Callo wrote on May 30 2008, 10:08 am

pretty good tab, just with the slides, make it a "/" instead of saying slide to

I want to post or [tab]
guest
You may want to rate the tab now too:
select rating
Please do not post tabs as comments. Select "correction" instead!