Oops, an error
Loading. Please wait.

Fascination Bass Tab

version 1
version 1

Whole song

Interactive

7,547 views 6 this week
2 commentsread comments
1 2 3 4 5
accurate
x 4
add to favorites
launch autoscroll
font size
0
reset
guitar tuner
Autoscroll
slow
fast
+/-
esc
set tempo
stop
Help us to improve Ultimate-Guitar.com Take our survey!
×
Author
first tab but that does not mean i'm bad. its every easy
hope u like it x x

verse 1
g |------------------- |
d |------------------- |
a |----------------55- |
e |----55--55--20----- |


Pre chorus:

g |-------------------------------------------|
d |-------------------------------------------|
a |------4----5-----------------------7777777-|
e |---------------2---5-------77777777--------|

    Fascination, Fascination      It's just the way we feel.


g |---------------------------------------------------|
d |---------------------------------------------------|
a |------4----5-----------------------777777755555555-|
e |---------------2---5-------77777777----------------|


    Fascination, Fascination      It's just the way we feel.


Chorus:


g |------------------------------------------------|
d |------------------------------------------------|  X4
a |----------------------------------5let-it-ring--|
e |---0000000000000000-2let-it-ring----------------|


verse 2:


g |------------------- |
d |------------------- |
a |----------------55- |
e |----55--55--20----- |

Pre chorus:

g |-------------------------------------------|
d |-------------------------------------------|
a |------4----5-----------------------7777777-|
e |---------------2---5-------77777777--------|

    Fascination, Fascination      It's just the way we feel.


g |---------------------------------------------------|
d |---------------------------------------------------|
a |------4----5-----------------------777777755555555-|
e |---------------2---5-------77777777----------------|


    Fascination, Fascination      It's just the way we feel.


Chorus:


g |------------------------------------------------|
d |------------------------------------------------|  X4
a |----------------------------------5let-it-ring--|
e |---0000000000000000-2let-it-ring----------------|


Bridge:

g |-------------------|
d |-------------------|  x8
a |-------------------|
e |----5555--5-5-55---|

 The words is on your lips, say the word.Fas-ci-na-tion!

Chorus:


g |------------------------------------------------|
d |------------------------------------------------|  X4
a |----------------------------------5let-it-ring--|
e |---0000000000000000-2let-it-ring----------------|


just keep playin

a |------------------
e |--5555555555222000


wkd little song


Easy living,
killed the young dudes,
in the high boots
Teenage,
in the pace age,
that's when love burns,
now it's your turn.


Fascination
Fascination
It's just the way we feel.

Fascination
Fascination
It's just the way we feel. (yeah)

We love this exaltation (woh oh, o-o-oh)
We want the new temptations (woh oh, o-o-o-oh)
It's like a revelation (woh oh, o-o-oh)
We live on fascination.


Passion,
is our passion,
in the moonlight,
on a joyride
Easy living,
killed the young dudes,
in the high boots. (oh yeah)


Fascination
Fascination
It's just the way we feel (come on).

We love this exaltation (woh oh, o-o-o-oh)
We want the new temptations (woh oh, o-o-o-oh)
It's like a revelation (woh oh, o-o-o-oh)
We live on fascination.

Fashion is our passion
In the moonlight on a joy ride
He said , let them
killed the young dudes,
in the high boots
Fascination
Fascination
It's just the way we feel (come on)

We love this exaltation (woh oh, o-o-o-oh)
We want the new temptations (woh oh, o-o-o-oh)
It's like a revelation (woh oh, o-o-o-oh)
We live on fascination.


The word is on your lips - say the word
The word is on your lips - say the word
The word is on your lips - say the word
The word is on your lips - say the word
The word is on your lips - say the word
The word is on your lips - say the word
The word is on your lips - say the word
The word is on your lips - say the word
The word is on your lips - say the word
The word is on your lips - say the word
The word is on your lips - say the word
Fas-ci-na-tion!


We love this exaltation (woh oh, o-o-o-oh)
We want the new temptations (woh oh, o-o-o-oh)
It's like a revelation (woh oh, o-o-o-oh)
We live on fascination (o-oh).

Say the word now (fa-sci-nation)
Say the word
Come on say the word now (fa-sci-nation)
Come on (fa-sci-nation)
Suggest correction
What's this?
You can suggest a correction to this tab. Community and Mods will review your correction and vote to approve or reject it.
comments
print report bad tab
2 comments total.
0 reply
lil-soph-t 25 wrote on April 9 2008, 01:49 pm

On the chorus where it goes
g |------------------------------------------------|
d |------------------------------------------------| X4
a |----------------------------------5let-it-ring--|
e |---0000000000000000-2let-it-ring----------------|

i dont think u let it ring,, but im not sure cuz i dont hav a bass to check =/ lol.

0 reply
jiggy182 129 wrote on February 15 2009, 08:42 pm

Brilliant, cheers x

guest
You may want to rate the tab now too:
select rating
Please do not post tabs as comments. Select "correction" instead!