Oops, an error
Loading. Please wait.

Fascination Bass Tab

version 2
version 2

Whole song

Interactive

5,911 views 12 this week
5 commentsread comments
1 2 3 4 5
accurate
x 4
add to favorites
launch autoscroll
font size
0
reset
guitar tuner
Autoscroll
slow
fast
+/-
esc
set tempo
stop
Help us to improve Ultimate-Guitar.com Take our survey!
×
Difficulty
novice
-------------------------------------------------------------------------------
			     FASCINATION - Alphabeat
-------------------------------------------------------------------------------

Tabbed By : KiroTV
e-mail: 

Tuning:Standard


Just about there i feel.
Needs a bit of polish - i'll leave that up to you guys!!!


    Easy         Living    Killed the
G|---------------------------------------------------------------------------|
D|---------------------------------------------------------------------------|
A|------------------------------9-7-7--7-7-7--5-5-5--5-5-5-------------------|X2
E|--5-5-5--5-5-0--5-5-5--5-5-0-----------------------------------------------|


    Fascination
G|---------------------------------------------------------------------------|
D|---------------------------------------------------------------------------|
A|--4-5----------------------------------------------------------------------|
E|------------0-2-------7-7-7-7-7-7-7-7--12-12-12-12-12-12-12-12-------------|


    Fascination
G|---------------------------------------------------------------------------|
D|---------------------------------------------------------------------------|
A|--4-5----------------------------------------------------------------------|
E|------------0-2-------7-7-7-7-7-7-7-7--12-12-12-12----10-10-10-------------|


    We love this                     We want the
G|---------------------------------------------------------------------------|
D|---------------------------------------------------------------------------|
A|----------------------------5-3-5----------------------------5-3-5---------|
E|--0-00-0-0-0-00-0--2-2-2-2---------0-00-0-0-0-00-0--2-2-2-2----------------|


    Its like a                        We live on Fascinaton!
G|---------------------------------------------------------------------------|
D|---------------------------------------------------------------------------|
A|----------------------------5-3-5------------------------------------------|
E|--0-00-0-0-0-00-0--2-2-2-2---------0---------------------------------------|


    Passion                   In the moonlight
G|---------------------------------------------------------------------------|
D|---------------------------------------------------------------------------|X2
A|------------------------------9-7-7-7-7-7--5-5-5--5-5-5--------------------|
E|--5-5-5--5-5-0--5-5-5--5-5-0-----------------------------------------------|


    Fascinaton
G|---------------------------------------------------------------------------|
D|---------------------------------------------------------------------------|
A|--4-5----------------------------------------------------------------------|
E|------------0-2-------7-7-7-7-7-7-7-7--12-12-12-12----10-10-10-------------|


    We love this                     We want the
G|---------------------------------------------------------------------------|
D|---------------------------------------------------------------------------|
A|----------------------------5-3-5----------------------------5-3-5---------|
E|--0-00-0-0-0-00-0--2-2-2-2---------0-00-0-0-0-00-0--2-2-2-2----------------|


    Its like a                       We live on fascination! 
G|---------------------------------------------------------------------------|
D|---------------------------------------------------------------------------|
A|----------------------------5-3-5------------------------------------------|
E|--0-00-0-0-0-00-0--2-2-2-2---------0---------------------------------------|

    
    The word is   The word is   The word is   The word is
G|---------------------------------------------------------------------------|
D|---------------------------------------------------------------------------|
A|------------------------------5----------7---5------7----------------------|
E|--2-------------4----5-----------------------------------------------------|

   The word is    The word is    The word is    FA-SCI-NA-TION
G|---------------------------------------------------------------------------|
D|---------------------------------------------------------------------------|
A|------------------------------5-5-55-5-5--77--5--5---5-5-5-7---------------|
E|--2-2-22-22-2-2-4-4-45-55-5-5----------------------------------------------|

    We love this
G|---------------------------------------------------------------------------|
D|---------------------------------------------------------------------------|
A|----------------------------5-3-5----------------------------5-3-5---------|
E|-------------------2-2-2-2---------0-00-0-0-0-00-0--2-2-2-2----------------|

    Its like a                       We live on
G|---------------------------------------------------------------------------|
D|---------------------------------------------------------------------------|
A|----------------------------5-3-5------------------------------------------|
E|--0-00-0-0-0-00-0--2-2-2-2---------0-00-0-0-0-00-0--2-2-2-2--10-10-10------|

                  Say the word now      Say the word
G|---------------------------------------------------------------------------|
D|---------------------------------------------------------------------------|
A|----------------------------5-3-5------------------------------------------|
E|--0-00-0-0-0-00-0--2-2-2-2---------0-00-0-0-0-00-0--2-2-2-2--10-10-10------|


G|---------------------------------------------------------------------------|
D|---------------------------------------------------------------------------|
A|----------------------------5-3-5------------------------------------------|
E|--0-00-0-0-0-00-0--2-2-2-2---------0----------------0-2--------------------|
Suggest correction
What's this?
You can suggest a correction to this tab. Community and Mods will review your correction and vote to approve or reject it.
comments
print report bad tab
5 comments total. Showing first comments.
0 reply
zaretix 58 wrote on September 6 2011, 09:55 am

I believe this is played on a 5 string bass...

0 reply
Rory Joe 107 wrote on August 22 2014, 12:44 pm

I think The 0's and 2's in the chorus has some octaves.

This sorta thing (rough - listen out for the exact pattern - don't have the bass to hand!).

G|-------------------------------------|
D|---2-2-2-2--2-2--2--4-4-4-4----------|
A|------------------------------5-3-5--|
E|--0-00-0-0-0-00-0--2-2-2-2-----------|

0 reply
KiroTV 11 wrote on October 12 2014, 06:40 am

I think you are right. There are a few passing notes that i missed as well!

guest
You may want to rate the tab now too:
select rating
Please do not post tabs as comments. Select "correction" instead!