Oops, an error
Loading. Please wait.

3Ww chords

by Alt-J
13,729 views 291 this week
4 commentsread comments
1 2 3 4 5
x 20
add to favorites
×
Save as Personal and add changes to this tab that will be seen only by you. Learn more ›
×
You can save this tab as Personal to edit and correct it or add notes. All changes will be seen only by you. Learn more »
launch autoscroll
font size
0
reset
transpose
0
reset
simplify chords
display chords
guitar tuner
edit
Autoscroll
slow
fast
+/-
esc
set tempo
stop
Strumming Is this strumming pattern correct? Yes No
Intro (Parts 2, 4, 5) + Verse 1 78 bpm
1
 
&
 
2
 
&
 
3
 
&
 
4
 
&
 
Listen
Verse 2        Chorus            Verse 3 + Bridge
----------     -------------     ----------------
D   0008xx     D      xxx89x     F#m  44xxxx
G   555555     Dsus2  xxx77x     E    22xxxx
A   777777     D5     xxx55x     D    00xxxx
               Em     2xx55x     Bm   99xxxx
               A      7x77xx     A    77xxxx
               A/G    5x77xx
               F#m    44xxxx


Open D tuning (D-A-D-F#-A-D)


[Intro]
                 Part 1                           Part 2                           Part 3
D |----------------------------------|-------------------------------|-------------------------------|
A |----------------------------------|-------------------------------|--0h5--------------------------|
F#|----------------------------------|-------------------------------|------6----0h6-----------------|
D |--0h8h10---0h7h9---0h4h5---0h5h7--|----------7---------------7----|---------------5---------------|
A |----------------------------------|-------------------------------|--------------------5--7--3--5-|
D |----------------------------------|--0-----0-----0-------0-----0--|-------------------------------|

                 Part 4                           Part 5                      Main Riff (D-chord)
D |----------------------------------|-------------------------------|-------------------------------|
A |----------------------------------|-------------------------------|-------------------------------|
F#|----------------------------------|-------------------------------|----------7/8-----------7/8----|
D |----------------------------------|-------------------------------|-------------------------------|
A |------------5---------------5-----|----------5---------------5----|-------------------------------|
D |----0-----0-----0-------0-----0---|--5-----5-----5-------5-----5--|--0-----0-----0-------0-----0--|

(Part 1)    (Part 2)x4    (Part 3)    (Part 4)x4
(Part 1)    (Part 2)x4    (Part 3)    (Part 4)x4
(Part 5)x4  (Main Riff)x8


[Verse 1]
D  N.C.
   There was a wayward lad, stepped out one morning
D  N.C.
   The ground to be his bed, the sky his awning


[Verse 2]
D               G
  Neon, neon, neon
       A                               D
A blue neon lamp in a midnight country field
                                   G
Cows surround so you lean on, lean on
   A                              D
So much your hugs become hold ons


[Chorus 1]
D  Dsus2       D5
Oh these three worn words
                     Em                        
Oh oh-oh-oh, that we whisper 
                 A        A/G           F#m
Like the rubbing hands of tourists in Verona
N.C.                         (Riff-1) 
I just want to love you in my own language

(Riff-1)
     D            D/C#         D/B        D/A       G         F#m       Em    
D |------------------------------------------------------------------------|
A |------------------------------------------------------------------------|
F#|------------------------------------------------------------------------|
D |---------12-----------12----------12---------7---------5---------4------|
A |------------------------------------------------------------------------|
D |--12--------12-11--------11-9--------9-7-------7-5-------5-4-------4-2--|


[Verse 3]
F#m           E                 D
    Well that smell of sex, good like burning wood
Bm              A       D
    The wayward lad lay claim
F#m        E                  D
    To two thirsty girls from Hornsea
Bm             A                 D
    Who left a note when morning came


[Bridge]
F#m                      E        D
Girls from the pool say 'hi' (hi)
    Bm             A                 D
The road erodes at five feet per year along England's east coastline
F#m                 E     D
Was this your first time?
Bm             A                D
Love is just a button we pressed last night by the campfire


[Chorus 2]
D  Dsus2       D5
Oh these three worn words
                     Em                        
Oh oh-oh-oh, that we whisper 
                 A        A/G           F#m
Like the rubbing hands of tourists in Verona
N.C.                         (Riff-1) 
I just want to love you in my own language


[Outro]

D |-------------------------------|
A |-------------------------------|
F#|----------7/8-----------7/8----|
D |-------------------------------| x4
A |-------------------------------|
D |--0-----0-----0-------0-----0--|

            
            
Suggest correction
Creating personal tab
Creating personal tab
You can edit any tab online and save it as your Personal.

You can edit, replace or remove any tab part or add personal notes – all changes will be seen only by you.

Personal tabs can be accessed anytime from any device, even offline.
Learn more »
comments
print report bad tab
4 comments total. Showing first comments.
+6 reply
jvnonno 26 Mar 10, 2017 11:41 AM, edited at 07:38 pm

Great tab!
If you're going to do an easy tab someday, try this in the chorus:

D G
Oh these three worn words
Em
Oh, that we whisper
A A/G F#m
Like the rubbing hands of tourists in Verona

0 reply
ramonhpacheco 29 Aug 21, 2017 12:50 PM

how do I play this G and A (finger position)?

guest
You may want to rate the tab now too:
select rating
Wanna post a correction for this tab? Suggest correction