Oops, an error
Loading. Please wait.

3Ww tab

version 2
version 2

Whole song

  • Open D tuning, follows how Joe Newman plays the part.
by Alt-J
1,453 views 57 this week
1 commentread comment
1 2 3 4 5
x 9
add to favorites
×
Save as Personal and add changes to this tab that will be seen only by you. Learn more ›
×
You can save this tab as Personal to edit and correct it or add notes. All changes will be seen only by you. Learn more »
launch autoscroll
font size
0
reset
how to read this tab
guitar tuner
edit
Autoscroll
slow
fast
+/-
esc
set tempo
stop
About this tab version
Open D tuning, follows how Joe Newman plays the part. Was this info helpful? Yes No
-----------------------------------------------------------------
3WW - Alt-J
-----------------------------------------------------------------

This is what Joe plays live. Based off of: https://www.youtube.com/watch?v=0AjdNfacZiU

Tuning: DADF#AD


[Intro]

D |--------------------------------|
A |--------------------------------|
F#|--------------------------------|
D |-0h9h10---0h7h9---0h4h5---0h5h7-|
A |--------------------------------|
D |--------------------------------|

D |--------------------|
A |--------------------|
F#|--------------------|
D |------7---------7---| X4
A |--------------------|
D |-0--0---0-----0---0-|

D |--------------------------------|
A |-0h5----------------------------|
F#|-----6----0h6-------------------|
D |--------------5-----------------|
A |--------------------5--7--3--5--|
D |--------------------------------|

D |--------------------|
A |--------------------|
F#|--------------------|
D |--------------------| X4
A |------5---------5---|
D |-0--0---0-----0---0-|

D |--------------------------------|
A |--------------------------------|
F#|--------------------------------|
D |-0h9h10---0h7h9---0h4h5---0h5h7-|
A |--------------------------------|
D |--------------------------------|

D |--------------------|
A |--------------------|
F#|--------------------|
D |------7---------7---| X4
A |--------------------|
D |-0--0---0-----0---0-|

D |--------------------------------|
A |-0h5----------------------------|
F#|-----6----0h6-------------------|
D |--------------5-----------------|
A |--------------------5--7--3--5--|
D |--------------------------------|

D |--------------------|
A |--------------------|
F#|--------------------|
D |--------------------| X4
A |------5---------5---|
D |-0--0---0-----0---0-|

D |--------------------|--------------------|--------------------|--------------------|
A |--------------------|--------------------|--------------------|--------------------|
F#|--------------------|--------------------|--------------------|--------------------|
D |--------------------|--------------------|--------------------|--------------------|
A |------5---------5---|------5---------5---|------5---------5---|------5---------5---|
D |-5--5---5-----5---5-|-5--5---5-----5---5-|-5--5---5-----5---5-|-5--5---5-----5---5-|

D |-------------------------|---------------------------|
A |-------------------------|---------------------------|
F#|------7/8---------7/8----|--------7/8---------7/8----|
D |-------------------------|---------------------------|
A |-------------------------|---------------------------|
D |-0--0-----0-----0-----0--|--0---0-----0-----0-----0--|

D |-------------------------|---------------------------|
A |-------------------------|---------------------------|
F#|-------7/8---------7/8---|--------7/8---------7/8----|
D |-------------------------|---------------------------|
A |-------------------------|---------------------------|
D |<12>-0-----0-----0-----0-|--0---0-----0-----0-----0--|

D |-------------------------|---------------------------|
A |-------------------------|---------------------------|
F#|------7/8---------7/8----|--------7/8---------7/8----|
D |-------------------------|---------------------------|
A |-------------------------|---------------------------|
D |-0--0-----0-----0-----0--|--0---0-----0-----0-----0--|

D |-------------------------|------------------------------|
A |-------------------------|------------------------------|
F#|-------7/8---------7/8---|---------7/8---------7/8------|
D |-------------------------|------------------------------|
A |-------------------------|------------------------------|
D |<12>-0-----0-----0-----0-|<12>-<12>----0-----0-----0--0-|


[Verse 1]

        There was a wayward lad, stepped out one morning


D |-------------------------|---------------------------|
A |-------------------------|---------------------------|
F#|------7/8---------7/8----|--------7/8---------7/8----|
D |-------------------------|---------------------------|  
A |-------------------------|---------------------------|
D |-0--0-----0-----0-----0--|--0---0-----0-----0-----0--| 


        The ground to be his bed, the sky his awning

[Verse 2]        

D |-------------------------|---------------------------|
A |-------------------------|---------------------------|
F#|------7/8---------7/8----|--------7/8---------7/8----|
D |-------------------------|---------------------------|
A |-------------------------|---------------------------|
D |-0--0-----0-----0-----0--|--0---0-----0-----0-----0--|

D |-------------------------|--5----------7---9--9--9---9\7-7----------|
A |-------------------------|--5----------7---10-10-10-10\9-9----------|
F#|------7/8---------7/8----|--5----------7----------------------------|
D |-------------------------|--5----------7----------------------------|
A |-------------------------|--5----------7----------------------------|
D |-0--0-----0-----0-----0--|--5----------7----------------------------|
    Neon,    neon,       neon, a blue neon lamp in a midnight country 

D |-------------------------|---------------------------|
A |-------------------------|---------------------------|
F#|------7/8---------7/8----|--------7/8---------7/8----|
D |-------------------------|---------------------------|
A |-------------------------|---------------------------|
D |-0--0-----0-----0-----0--|--0---0-----0-----0-----0--|
  field.

D |-------------------------|--5----------7---9--9--9---9\7-7------|-------------------------|---------------|
A |-------------------------|--5----------7---10-10-10-10\9-9------|-------------------------|---------------|
F#|------7/8---------7/8----|--5----------7------------------------|------7/8---------7/8----|---------------|
D |-------------------------|--5----------7------------------------|-------------------------|---------------|
A |-------------------------|--5----------7------------------------|-------------------------|---------------|
D |-0--0-----0-----0-----0--|--5----------7------------------------|-0--0-----0-----0-----0--|---------------|
    Can't surround so you lean on, lean on, so much your heart's become fond of this

[Chorus 1]

D |-----------------------------------------------------------------------------------|----------------------|
A |----8/9-7-7-5------5-------5-------5-------------7-------7-------7-------7---------|----------------------|
F#|----7/8-7-6-5------5-------5-------5-----2-4-5-9-7-------7-------7-------7---------|----------------------|
D |-----------------------------------------------------------------------------------|----------------------|
A |-----------------------------------------------------------------------------------|----------------------|
D |----------------5-----5-4-----4-2----2----------------7-----7-5-----5-4------------|----------------------|
  Oh these three worn words, oh, that we whisper             of tourists in Verona,     
                                         like the rubbing hand                   I just want to love you in my

D |-------------------------------------------------------------------|
A |-------------------------------------------------------------------|
F#|-------------------------------------------------------------------|
D |------12--------12-------12------7------5------4-------------------|
A |-------------------------------------------------------------------|
D |-12------12-11-----11-9-----9-7----7-5----5-4----4-2---------------|
   own language.

[Verse 3]

D |--------4---------2h4---------4--------2h4/9-|-------9---------------------9------7h9-|
A |---------------------------------------------|----------------------------------------|
F#|---------------------------------------------|----------------------------------------|
D |---------------------------------------------|-----------------7h9--------------------|
A |---------------------------------------------|----------------------------------------|
D |--4---4---4-2---2-----2-0---0---0----0-------|-9---9---9-7---7-----7-0---0---0--0-----|
        Well that smell of sex good like burning wood, the wayward lad laid claim

D |--------4---------2h4---------4--------2h4/9-|-------9---------------------9------7h9-|
A |---------------------------------------------|----------------------------------------|
F#|---------------------------------------------|----------------------------------------|
D |---------------------------------------------|-----------------7h9--------------------|
A |---------------------------------------------|----------------------------------------|
D |--4---4---4-2---2-----2-0---0---0----0-------|-9---9---9-7---7-----7-0---0---0--0-----|
        To two dusty girls from Hornsea,         Who left a note when dawn came

D |--------4---------2h4---------4--------2h4/9-|-------9---------------------9------7h9-|
A |---------------------------------------------|----------------------------------------|
F#|---------------------------------------------|----------------------------------------|
D |---------------------------------------------|-----------------7h9--------------------|
A |---------------------------------------------|----------------------------------------|
D |--4---4---4-2---2-----2-0---0---0----0-------|-9---9---9-7---7-----7-0---0---0--0-----|
    Girls from the pool say "hi",        the road erodes at five feet per year
                                                                        along England's east coastline

D |--------4---------2h4---------4--------2h4/9-|-------9--------------------------------|
A |---------------------------------------------|----------------------------------------|
F#|---------------------------------------------|----------------------------------------|
D |---------------------------------------------|-----------------7h9--------------------|
A |---------------------------------------------|----------------------------------------|
D |--4---4---4-2---2-----2-0---0---0----0-------|-9---9---9-7---7-----7-0----------------|
   Was this your first time?                    Love is just a button we pressed last night by the campfire.


[Chorus 2]

D |-----------------------------------------------------------------------------------|----------------------|
A |----8/9-7-7-5------5-------5-------5-------------7-------7-------7-------7---------|----------------------|
F#|----7/8-7-6-5------5-------5-------5-----2-4-5-9-7-------7-------7-------7---------|----------------------|
D |-----------------------------------------------------------------------------------|----------------------|
A |-----------------------------------------------------------------------------------|----------------------|
D |----------------5-----5-4-----4-2----2----------------7-----7-5-----5-4------------|----------------------|
  Oh these three worn words, oh, that we whisper           of tourists in Verona,
                                         like the rubbing hand                   I just want to love you in my

D |-------------------------------------------------------------------|
A |-------------------------------------------------------------------|
F#|-------------------------------------------------------------------|
D |------12--------12-------12------7------5------4-------------------|
A |-------------------------------------------------------------------|
D |-12------12-11-----11-9-----9-7----7-5----5-4----4-2---------------|
  own language

[Outro]

D |-------------------------|---------------------------|-------------------------|--------------------------|
A |-------------------------|---------------------------|-------------------------|--------------------------|
F#|------7/8---------7/8----|--------7/8---------7/8----|------7/8---------7/8----|--------7/8-------7/8-----|
D |-------------------------|---------------------------|-------------------------|--------------------------|
A |-------------------------|---------------------------|-------------------------|--------------------------|
D |-0--0-----0-----0-----0--|--0---0-----0-----0-----0--|-0--0-----0-----0-----0--|--0---0-----0---0-----0-0-|


| /  slide up
| \  slide down
| h  hammer-on
| <> harmonic

            
            
Suggest correction
Creating personal tab
Creating personal tab
You can edit any tab online and save it as your Personal.

You can edit, replace or remove any tab part or add personal notes – all changes will be seen only by you.

Personal tabs can be accessed anytime from any device, even offline.
Learn more »
comments
print report bad tab
1 comment total.
0 reply
otty1042 33 Jun 30, 2017 02:49 AM

immaculate

guest
You may want to rate the tab now too:
select rating
Wanna post a correction for this tab? Suggest correction