Oops, an error
Loading. Please wait.

Bloodflood Pt2 tab

by Alt-J
205 views 3 this week
no commentswrite comment
1 2 3 4 5
1 last vote to show rating
add to favorites
×
Save as Personal and add changes to this tab that will be seen only by you. Learn more ›
×
You can save this tab as Personal to edit and correct it or add notes. All changes will be seen only by you. Learn more »
launch autoscroll
font size
0
reset
how to read this tab
guitar tuner
edit
Autoscroll
slow
fast
+/-
esc
set tempo
stop
Author
Difficulty
About this tab version
I haven't found this anywhere else online, so I listened to the song a whole lot of times focusing on one layer at a time and tried to put it together with loops. This is what I got. Was this info helpful? Yes No
This is a tab of the outro compiled of loops. If you don't already have a looper pedal, I suggest getting
one, because they're awesome, and then you can make things like this!

Each segment is a bar with 4 beats. (when I use "|" across the entire tab)

No [Intro]/[Verse] etc included.

[Outro]

Loop 1
e|------------|------------------|------------2---|-----------------------------------|
B|-2h3--------|--5h7----------10-|--2-------------|-----------------------------------|
G|------------|------------/11---|--------------2-|--4------2--1----------------------|
D|------------|------------------|----------------|-----------------------------------|
A|-2----------|--5---------------|--0-------------|-----------------------------------|
E|------------|------------------|----------------|--0--------------------------------|


Loop 2
e|-------------------|--------------------|-------------------|-----------------|
B|-------------------|--------------------|-------------------|-----------------|
G|-11-14-16-11-14-16-|-11-13-14-11-13-14--|-11-14-16-11-14-16-|-9-11-14-9-11-14-|
D|-------------------|--------------------|-------------------|-----------------|
A|-------------------|--------------------|-------------------|-----------------|
E|-------------------|--------------------|-------------------|-----------------|


Loop 3 - Some of those deeper voice parts at 4:28ish, just give it a listen for timing.
e|--------------------------|---------------------|----------------------------|
B|--------------------------|---------------------|----------------------------|
G|--------------------------|---------------------|----------------------------|
D|--------------------------|---------------------|----------------------------|
A|---------5--4--2-----4--2-|--/9--9--7--7--5--4--|-----2--0-------------------|
E|---5--5-----------5-------|---------------------|--0-------4--0-/5-----------|


Loop 4
Add in some chords for depth, one chord per bar, either let it ring out or give it some rhythm. Sometimes 
I make this into two loops, once with just the bass note being played more, then the second loop is each
chord strummed once and left to ring out. To each their own though, do you.


Bm   D   A   E

You can also do one loop open chords, another loop barre chords to make it sound more full.


Loop 5 - Play this once at the beginning of each bar, totalling 4 times.
e|---------------------------------------------------------------------------|
B|---------------------------------------------------------------------------|
G|----19--18--16------18--16-------------------------------------------------|
D|----------------19---------------------------------------------------------|
A|---------------------------------------------------------------------------|
E|---------------------------------------------------------------------------|


Loop 6 - The End Violin - Sounds pretty awesome if you play this with a slide.
e|----------------------------|-----------------------------------------------|
B|--7-----10-----5-----12-----|---15----19----17----12------------------------|
G|----------------------------|-----------------------------------------------|
D|----------------------------|-----------------------------------------------|
A|----------------------------|-----------------------------------------------|
E|----------------------------|-----------------------------------------------|

That's pretty much it! After that, you can add little bits to fill in, for parts like the trumpet and other
voice segments I may be missing, but I think this covers most major loops. 

Comment loops you've added and think make it sound more full;

Hope you dig it!



************************************

| x   Dead note
| g   Grace note
| (n) Ghost note
| h   Hammer-on
| p   Pull-off
| r   Release
| >   Accented note
| t   Tapping
| b   Bend
| br  Bend release
| pb  Pre-bend
| pbr Pre-bend release
| /   Slide up
| \   Slide down
| ~   Vibrato
| s   Slap
| P   Pop
| PM  Palm mute
| TR  Trill
| N   Tremolo

************************************

            
            
Suggest correction
Creating personal tab
Creating personal tab
You can edit any tab online and save it as your Personal.

You can edit, replace or remove any tab part or add personal notes – all changes will be seen only by you.

Personal tabs can be accessed anytime from any device, even offline.
Learn more »
Give kudos to tab author, rate the tab!
1 2 3 4 5
comments
print report bad tab
guest
You may want to rate the tab now too:
select rating
Wanna post a correction for this tab? Suggest correction