Oops, an error
Loading. Please wait.

Bloodflood tab

version 3
version 3

Whole song

by Alt-J
2,852 views 33 this week
1 commentread comment
1 2 3 4 5
x 5
add to favorites
×
Save as Personal and add changes to this tab that will be seen only by you. Learn more ›
×
You can save this tab as Personal to edit and correct it or add notes. All changes will be seen only by you. Learn more »
launch autoscroll
font size
0
reset
how to read this tab
guitar tuner
edit
Autoscroll
slow
fast
+/-
esc
set tempo
stop
Author
Difficulty
-------------------------------------------------------------------------------
                             BLOODFLOOD - Alt-J
-------------------------------------------------------------------------------
Tabbed by: burtmacklin
E-mail:mushkinhenry@gmail.com

Tuning:eadgbe

This song is normally played with two guitars, however the second guitar is only used in the
intro of the
song, and for a very short sequence of notes in the middle of the song.  This tab covers 
only the parts of
the song played by Gwil. Gwil plays guitar in a strange way so sound closest to the 
actual song I recommend
watching the kexp live version of the song on youtube.  There are some close up camera 
shots of Gwil and how
he's fretting the notes.

************************************
Key:

| /   slide up
| h   hammer-on

************************************

Minute 0:22 - 1:17

e|--------------------------------------------------------|
B|-5-5--5-5--5--5-5--5-5--5--5--5-5--5-5--5--5-5--5-5/10--|
G|--------------------------------------------------------|
D|--------------------------------------------------------|     X3
A|--------------------------------------------------------|
E|----5----5---5-5--5------5-------5----5---5-5--5--------|

e|--9--9--9--9---------------------------------------------------|
B|--10-10-10-10--------------------------------------------------|
G|---------------------------------------------------------------|
D|---------------------------------------------------------------|    Xa lot
A|---------------------------------------------------------------|
E|---------------------------------------------------------------|

Minute 1:21 - 2:18

e|---------------------------------------------------------------------------------|
B|---------------------------------------------------------------------------------|
G|-------9h11---------------9h11-----------------9h11---------------9h11-----------|
D|---9/11----11-7/9-9---9/11----11-7/9-9-7---9/11----11-7/9-9---9/11----11-7/9-9---|
A|---------------------------------------------------------------------------------|
E|---------------------------------------------------------------------------------|

e|--------------------------------------------------------------|
B|--------------------------------------------------------------|
G|--------------------------------------------------------------|
D|-----7---9-------------7---7-------7---9----------------9-7---|
A|-7-9---9---7-9-9---7-9---9-----7-9---9----7-9-9-7-9-9---------|
E|--------------------------------------------------------------|

e|-------------------------------------------------------------------------|
B|-------------------------------------------------------------------------|
G|------9h11-----------------------------9h11------------------------------|
D|-9/11------11-7/9-9---------------9/11------11-7/9-9-7/9-9--9--11-9-7----|
A|--------------------7-9-9-7-9--------------------------------------------|
E|-------------------------------------------------------------------------|

e|------------------------------------------------------------------------------|
B|------------------------------------------------------------------------------|
G|--------9h11-----------------9h11-------------------9h11-----------------9-11-|
D|---9/11------11-7/9-9---9/11------11-7/9-9-7---9/11------11-7/9-9---9/11------|
A|------------------------------------------------------------------------------|
E|------------------------------------------------------------------------------|

Minute 2:20 - 2:34

e|---------------------------------------------------------|
B|---------------------------------------14---14------14---|
G|------11---14----11-11---14----11-11------11---11-11--11-|
D|---14----14---14-------14---14-------14------------------|
A|---------------------------------------------------------|
E|---------------------------------------------------------|

e|-----------------------------------------------------------------|
B|--------------------------------------------14---14-------14-----|
G|----11----11---14----11-11---14----11-11-------11---11-11----11--|
D|-14----14----14---14-------14---14-------14----------------------|
A|-----------------------------------------------------------------|
E|-----------------------------------------------------------------|

Minute 2:57 - 3:25

e|------------------------------------------------------------------------------|
B|------------------------------------------------------------------------------|
G|--------9h11---------------------------------9h11-----------------------------|
D|---9/11------11-7/9-9---------7---7-----9/11------11-7/9-9-7/9-9--9--11-9-7---|
A|----------------------7-9---9---9---------------------------------------------|
E|------------------------------------------------------------------------------|

e|------------------------------------------------------------------------------|
B|------------------------------------------------------------------------------|
G|------------------------------------------------------------------------------|
D|--------------7-9-------------------7-9-------------------7-9-----------------|
A|-7h9--7h9--7h9-9-9-9-9-7h9--7h9--7h9-9-9-9-9-7h9--7h9--7h9-9-9-9-9-7h9-7h9-9--|
E|------------------------------------------------------------------------------|

            
            
Suggest correction
Creating personal tab
Creating personal tab
You can edit any tab online and save it as your Personal.

You can edit, replace or remove any tab part or add personal notes – all changes will be seen only by you.

Personal tabs can be accessed anytime from any device, even offline.
Learn more »
comments
print report bad tab
1 comment total.
0 reply
billylarkindoesntknow 10 Sep 08, 2016 12:17 PM

hey man, great tab! I played everything in open d and shifted notes accordingly, and it sounded awesome. Just wanted to shout you out for nailing this song

guest
You may want to rate the tab now too:
select rating
Wanna post a correction for this tab? Suggest correction