Oops, an error
Loading. Please wait.

Breezeblocks Bass Tab

version 1
version 1

Whole song

Interactive

46,909 views 144 this week
3 commentsread comments
1 2 3 4 5
x 49
add to favorites
launch autoscroll
font size
0
reset
guitar tuner
Autoscroll
slow
fast
+/-
esc
set tempo
stop
Help us to improve Ultimate-Guitar.com Take our survey!
×
Author
Difficulty
novice
[Verse]

G|----------------------------------------------|
D|----------------7--------------------7--------|
A|-8--8-12--12-5----5-5555-8-8-12-12-5---5-5555-|
E|----------------------------------------------|


[Chorus]

G|-------------------------------------------------------|
D|-------------------------------------------------------|
A|-88888888-1212121212121212-555555-77-88888888-(-5-7-8)-|
E|-------------------------------------------------------|


[Bridge]

G|--------|---------------------------------|
D|-5--5-3-|---------------------------------|
A|--------|-55555555-88888888-1313131313-12-|
E|--------|---------------------------------|
Suggest correction
comments
print report bad tab
3 comments total.
0 reply
Unclejoshe 10 Jun 13, 2013 05:32 AM

Absolutely brilliant bassline, Plus scored some major hashbrownie points with my girlfriend, cheers

+2 reply
robotfrom94 314 Aug 30, 2013 06:58 AM

perfect except the bridge sounds a little off

0 reply
jmgus 58 Jun 30, 2014 02:33 PM

It sounds right to me, but it makes more sense to play it like this:

Intro/verse:


G|-------------------------------------------------------------
D|------7----7-0-----7-0--0000-----------7----7-0-----7-0--0000
A|-8--8-----------------------------8--8-----------------------
E|-------------------------------------------------------------


Chorus:

G|-------------------------------------------------------|
D|----------77777777-000000------------------------------|
A|-88888888-----------------77-88888888-(-5-7-8)---------|
E|-------------------------------------------------------|


Bridge:

G|---------|-------------------------------|
D|---------|-00000000----------88888--7----|
A|-10-10-8-|---------88888888--------------|
E|---------|-------------------------------|


Also bridge to me sounds more like:


G|-------------------------------------|
D|00000000-----------------8888--7777--|
A|--------8888888888888888-------------|
E|-------------------------------------|

guest
You may want to rate the tab now too:
select rating
Wanna post a correction for this tab? Suggest correction