Oops, an error
Loading. Please wait.

Breezeblocks Bass Tab

version 2
version 2

Whole song

Interactive

3,833 views 9 this week
no commentswrite comment
1 2 3 4 5
x 6
add to favorites
launch autoscroll
font size
0
reset
guitar tuner
Autoscroll
slow
fast
+/-
esc
set tempo
stop
Help us to improve Ultimate-Guitar.com Take our survey!
×
Author
Difficulty
Tuning
novice
D A D G B E
Breezeblocks - Alt-J

Drop D tuning

Verse:
G|----------------------|
D|----7---0---0---------| x5
A|-8--------------------|
E|---------------0000---|

Chorus:Pt.1
G|-------------------------------------------------------|
D|-----------77777777----00000000------------------------|
A|-88888888----------------------------88888888----------|
E|-------------------------------------------------------|

Chorus:Pt.2
G|-------------------------------------------------------|
D|-----------77777777----00000000------------------------|
A|-88888888-------------------------77-88888888----------|
E|-------------------------------------------------------|

Bridge:
G|------------------------------------|
D|--00000000--7777777-----------8/7---|
A|-------------------8888888888-------|
E|------------------------------------|
Suggest correction
comments
print report bad tab
guest
You may want to rate the tab now too:
select rating
Wanna post a correction for this tab? Suggest correction