Oops, an error
Loading. Please wait.
We have an official Breezeblocks tab made by UG professional guitarists. Check out the tab »
×

Breezeblocks tab

by Alt-J
1,762 views 42 this week
no commentswrite comment
1 2 3 4 5
x 6
add to favorites
×
Save as Personal and add changes to this tab that will be seen only by you. Learn more ›
×
You can save this tab as Personal to edit and correct it or add notes. All changes will be seen only by you. Learn more »
launch autoscroll
font size
0
reset
how to read this tab
guitar tuner
backing track
0:00
0:00
edit
Autoscroll
slow
fast
+/-
esc
set tempo
stop
Author
About this tab version
No need to tune high E string to D. Was this info helpful? Yes No
Alt-J Breezeblocks
Drop D
Joe Newman part as played here: https://www.youtube.com/watch?v=NtVu4KD8K-I

Verses

E|-5-----8-----10----10----------
B|-------------------------------
G|-------------------------------
D|-------------------------------
A|-------------------------------
D|-3---3-7---7-0---7-0----0-0-0-0

Chorus

E|---------------------------------------------------------------
B|---------------------------------------------------------------
G|---------------------------------------------------------------
D|---------------------------------------------------------------
A|---------------------------------------------------------------
D|3-3-3-3-3-3-3-3-7-7-7-7-7-7-7-7-0-0-0-0-0-0-2-2-3-3-3-3-3-3-3-3

Breakdown

E|-----------------------------------------------------------------------------------------------
B|-----------------------------------------------------------------------------------------------
G|-----------------------------------------------------------------------------------------------
D|-----------------------------------------------------------------------------------------------
A|------------------------------------------------15-15-15-15-15-15-15-15-13-13-13-13-12-12-12-12
D|12-12-12-12-12-12-12-12-15-19-19-19-15-19-19-19------------------------------------------------

Then goes back to chorus during the 'please don't go, I eat you whole' part

            
            
Suggest correction
Creating personal tab
Creating personal tab
You can edit any tab online and save it as your Personal.

You can edit, replace or remove any tab part or add personal notes – all changes will be seen only by you.

Personal tabs can be accessed anytime from any device, even offline.
Learn more »
comments
print report bad tab
guest
You may want to rate the tab now too:
select rating
Wanna post a correction for this tab? Suggest correction