Oops, an error
Loading. Please wait.

Hit Me Like That Snare tab

by Alt-J
772 views 9 this week
no commentswrite comment
1 2 3 4 5
x 3
add to favorites
×
Save as Personal and add changes to this tab that will be seen only by you. Learn more ›
×
You can save this tab as Personal to edit and correct it or add notes. All changes will be seen only by you. Learn more »
launch autoscroll
font size
0
reset
how to read this tab
guitar tuner
edit
Autoscroll
slow
fast
+/-
esc
set tempo
stop
[Verse 1]
                    G5                                      Bb5
e|-----|------------------------------------------|-----|---------------------------------------|
B|-----|------------------------------------------|-----|-------------------------------------- |  
G|-----|------------------------------------------|-----|--3------------------------------------|
D|-----|-5----------------------------------------|---0-|--3------------------------------------|
A|--0--|-5----------------------------------------|--0--|--1------------------------------------|
E|-1-1-|-3----------------------------------------|-1---|---------------------------------------|
            I'm out the door at a quarter to four           Poppers popping baby might take some more     
                
                    D5                                      G5
e|-----|------------------------------------------|-----|---------------------------------------|
B|-----|------------------------------------------|-----|---------------------------------------|  
G|---0-|-7----------------------------------------|-----|---------------------------------------|
D|--0--|-7----------------------------------------|-----|--5------------------------------------|
A|-1---|-5----------------------------------------|--0--|--5------------------------------------|
E|-----|------------------------------------------|-1-1-|--3------------------------------------|
        I'm fucking loose, you're gorgeous, I don't care     Come closer, baby, slap me like that snare

[Verse 2]
                   G5                                      Bb5
e|-----|------------------------------------------|-----|---------------------------------------|
B|-----|------------------------------------------|-----|-------------------------------------- |  
G|-----|------------------------------------------|-----|--3------------------------------------|
D|-----|-5----------------------------------------|---0-|--3------------------------------------|
A|--0--|-5----------------------------------------|--0--|--1------------------------------------|
E|-1-1-|-3----------------------------------------|-1---|---------------------------------------|
           'Moon Shaped Pool' plays in the velvet cell     Great neon sign reads "Welcome to Hell"        
                
                    D5                                      G5
e|-----|------------------------------------------|-----|---------------------------------------|
B|-----|------------------------------------------|-----|---------------------------------------|  
G|---0-|-7----------------------------------------|-----|---------------------------------------|
D|--0--|-7----------------------------------------|-----|--5------------------------------------|
A|-1---|-5----------------------------------------|--0--|--5------------------------------------|
E|-----|------------------------------------------|-1-1-|--3------------------------------------|
       Leather slings fall like oxygen masks               We're going down, fuck my life in half

[Verse 3]
                   G5                                      Bb5
e|-----|------------------------------------------|-----|---------------------------------------|
B|-----|------------------------------------------|-----|-------------------------------------- |  
G|-----|------------------------------------------|-----|--3------------------------------------|
D|-----|-5----------------------------------------|---0-|--3------------------------------------|
A|--0--|-5----------------------------------------|--0--|--1------------------------------------|
E|-1-1-|-3----------------------------------------|-1---|---------------------------------------|
          School of magic, with brooms and wands             Pairs of people tugging like hungry dogs
                
                    D5                                      G5
e|-----|------------------------------------------|-----|---------------------------------------|
B|-----|------------------------------------------|-----|---------------------------------------|  
G|---0-|-7----------------------------------------|-----|---------------------------------------|
D|--0--|-7----------------------------------------|-----|--5------------------------------------|
A|-1---|-5----------------------------------------|--0--|--5------------------------------------|
E|-----|------------------------------------------|-1-1-|--3------------------------------------|
         For bone, baby, in the house of slithering         Floor full of happy wizards scissoring

[Verse 4]
                   G5                                      Bb5
e|-----|------------------------------------------|-----|---------------------------------------|
B|-----|------------------------------------------|-----|-------------------------------------- |  
G|-----|------------------------------------------|-----|--3------------------------------------|
D|-----|-5----------------------------------------|---0-|--3------------------------------------|
A|--0--|-5----------------------------------------|--0--|--1------------------------------------|
E|-1-1-|-3----------------------------------------|-1---|---------------------------------------|
          I don't subscribe to your cultural norms            My church's doctrine has lost its charm

                    D5                                      G5
e|-----|------------------------------------------|-----|---------------------------------------|
B|-----|------------------------------------------|-----|---------------------------------------|  
G|---0-|-7----------------------------------------|-----|---------------------------------------|
D|--0--|-7----------------------------------------|-----|--5------------------------------------|
A|-1---|-5----------------------------------------|--0--|--5------------------------------------|
E|-----|------------------------------------------|-1-1-|--3------------------------------------|
          Rise above the gloom of the jungle floor          Hit me like that snare, more, more, more

[Verse 5]
                   G5                                      Bb5
e|-----|------------------------------------------|-----|---------------------------------------|
B|-----|------------------------------------------|-----|-------------------------------------- |  
G|-----|------------------------------------------|-----|--3------------------------------------|
D|-----|-5----------------------------------------|---0-|--3------------------------------------|
A|--0--|-5----------------------------------------|--0--|--1------------------------------------|
E|-1-1-|-3----------------------------------------|-1---|---------------------------------------|
          I don't subscribe to your cultural norms           My church's doctrine has lost its charm
                    D5                                      G5
e|-----|------------------------------------------|-----|---------------------------------------|
B|-----|------------------------------------------|-----|---------------------------------------|  
G|---0-|-7----------------------------------------|-----|---------------------------------------|
D|--0--|-7----------------------------------------|-----|--5------------------------------------|
A|-1---|-5----------------------------------------|--0--|--5------------------------------------|
E|-----|------------------------------------------|-1-1-|--3------------------------------------|
          Family matters. I couldn't agree more             This is my family f*sting me on the floor

[Verse 6]
                   G5                                      Bb5
e|-----|------------------------------------------|-----|---------------------------------------|
B|-----|------------------------------------------|-----|-------------------------------------- |  
G|-----|------------------------------------------|-----|--3------------------------------------|
D|-----|-5----------------------------------------|---0-|--3------------------------------------|
A|--0--|-5----------------------------------------|--0--|--1------------------------------------|
E|-1-1-|-3----------------------------------------|-1---|---------------------------------------|
          Regret my safe word, one to ten in Japanese       At the party, carpet burning my knees

                    D5                                      G5
e|-----|------------------------------------------|-----|---------------------------------------|
B|-----|------------------------------------------|-----|---------------------------------------|  
G|---0-|-7----------------------------------------|-----|---------------------------------------|
D|--0--|-7----------------------------------------|-----|--5------------------------------------|
A|-1---|-5----------------------------------------|--0--|--5------------------------------------|
E|-----|------------------------------------------|-1-1-|--3------------------------------------|
         Na na na na na na na na na na na na            (ichi, ni, san, shi, go, roku, nana, hachi, kyu, jyuu)

                   G5                                      Bb5
e|-----|------------------------------------------|-----|---------------------------------------|
B|-----|------------------------------------------|-----|-------------------------------------- |  
G|-----|------------------------------------------|-----|--3------------------------------------|
D|-----|-5----------------------------------------|---0-|--3------------------------------------|
A|--0--|-5----------------------------------------|--0--|--1------------------------------------|
E|-1-1-|-3----------------------------------------|-1---|---------------------------------------|
         Ichi, ni, san, go, roku, nana, hachi, kyu, jyuu   Ichi, ni, san, go, roku, nana, hachi, kyu, jyuu 

                    D5                                      G5
e|-----|------------------------------------------|-----|---------------------------------------|
B|-----|------------------------------------------|-----|---------------------------------------|  
G|---0-|-7----------------------------------------|-----|---------------------------------------|
D|--0--|-7----------------------------------------|-----|--5------------------------------------|
A|-1---|-5----------------------------------------|--0--|--5------------------------------------|
E|-----|------------------------------------------|-1-1-|--3------------------------------------|

C   B  E    D  C   B  E  D
We are dangerous teenagers
C   B  E    D  C   B  E  D
We are dangerous teenagers

C        B       E       D  
Fuck you, I'll do what I want to do
C        B       E       D  
Fuck you, I'll do what I want to do
C        B       E       D  
Fuck you, I'll do what I want to do
C        B       E       D  
Fuck you, I'll do what I want to do

            
            
Suggest correction
Creating personal tab
Creating personal tab
You can edit any tab online and save it as your Personal.

You can edit, replace or remove any tab part or add personal notes – all changes will be seen only by you.

Personal tabs can be accessed anytime from any device, even offline.
Learn more »
Give kudos to tab author, rate the tab!
1 2 3 4 5
comments
print report bad tab
guest
You may want to rate the tab now too:
select rating
Wanna post a correction for this tab? Suggest correction