Oops, an error
Loading. Please wait.
We have Chord Pro version of In Cold Blood.
It's the closest thing you can get to the original song and it has interactive parts. Check out the tab »
×

In Cold Blood tab

version 2
version 2

Whole song

  • Full tab of song. Please rate or comment.

Interactive

by Alt-J
232 views 30 this week
no commentswrite comment
1 2 3 4 5
2 more votes to show rating
add to favorites
×
Save as Personal and add changes to this tab that will be seen only by you. Learn more ›
×
You can save this tab as Personal to edit and correct it or add notes. All changes will be seen only by you. Learn more »
launch autoscroll
font size
0
reset
how to read this tab
guitar tuner
edit
Autoscroll
slow
fast
+/-
esc
set tempo
stop
tried watching band play it live to make tab
(Alt J use this tuning for a majority of their songs)



[Intro / Verse]

D |-------------------------|-------------------------|
A |-------------------------|-------------------------|
F#|-------------------------|-------------------------| x4
D |-------------------------|-------------------------|
A |-------------------2-----|-------------------------|
D |-4--4-----------------0--|-2--2--------------------|


[Pre-chorus]


D |-------------------------|-------------------------|-------------------------|
A |-------------------------|-------------------------|-------------------------|
F#|-------------------------|-------------------------|-------------------------|
D |-------------------------|-------------------------|-------------------------|
A |-------------------5-----|------------------2------|------------------7--9---|
D |-9--------------------0--|-5-----5--4----------0---|-2------2--0-------------|

D |-------------------------|-------------------------|
A |-------------------------|-------------------------|
F#|-------------------------|-------------------------| 
D |-------------------------|-------------------------|
A |-------------------------|-------------------------|
D |-9--9--9--9--9--9--9--9--|-9--9--9--9--9--9--9--9--|


[Verse]

D |-------------------------|-------------------------|
A |-------------------------|-------------------------|
F#|-------------------------|-------------------------| x4
D |-------------------------|-------------------------|
A |-------------------2-----|-------------------------|
D |-4--4-----------------0--|-2--2--------------------|


[Pre-chorus]

D |-------------------------|-------------------------|-------------------------|
A |-------------------------|-------------------------|-------------------------|
F#|-------------------------|-------------------------|-------------------------|
D |-------------------------|-------------------------|-------------------------|
A |-------------------5-----|------------------2------|------------------7--9---|
D |-9--------------------0--|-5-----5--4----------0---|-2------2--0-------------|

D |-------------------------|-------------------------|
A |-------------------------|-------------------------|
F#|-------------------------|-------------------------| 
D |-------------------------|-------------------------|
A |-------------------------|-------------------------|
D |-9--9--9--9--9--9--9--9--|-9--9--9--9--9--9--9--9--|

[Bridge]

(slow sweep across strings)

D |------9------------------|------7------------------|------5------------------|-------------------------|
A |-----9-------------------|-----7-------------------|-----5-------------------|-------------------------|
F#|----9--------------------|----7--------------------|----5--------------------|-------------------------| x4
D |---9---------------------|---7---------------------|---5---------------------|-------------------------|
A |--9----------------------|--7----------------------|--5----------------------|-------------------------|
D |-9-----------------------|-7-----------------------|-5-----------------------|-5-----4-----5-----7-----|

D |------9------------------|------7------------------|------5------------------|-------------------------|
A |-----9-------------------|-----7-------------------|-----5-------------------|-------------------------|
F#|----9--------------------|----7--------------------|----5--------------------|-------------------------|  
D |---9---------------------|---7---------------------|---5---------------------|-------------------------|
A |--9----------------------|--7----------------------|--5----------------------|-------------------------|
D |-9-----------------------|-7-----------------------|-5-----------------------|-------------------------|


[Chorus]

D |-------------------------|-------------------------|-------------------------|-------------------------|
A |-------------------------|-------------------------|-------------------------|-------------------------|
F#|-------------------------|-------------------------|-------------------------|-------------------------|
D |-------------------------|-------------------------|-------------------------|-------------------------|
A |-2-----------------------|-------------------------|-------------------------|-------------------------|
D |-------------------------|-4-----------4-----------|-0-----------------------|-12-11-12-11-12\---7\----|

D |-------------------------|-------------------------|-------------------------|-------------------------|
A |-------------------------|-------------------------|-------------------------|-------------------------|
F#|-------------------------|-------------------------|-------------------------|----------------8--------|
D |-------------------------|-------------------------|-------------------------|-------------------9-----|
A |-2-----------------2-----|-------------------------|-------------------------|-7--7--7--7--9-----------|
D |-------------------------|-4-----------4-----------|-0-----------------------|-------------------------|

D |-------------------------|-------------------------|-------------------------|-------------------------|
A |-------------------------|-------------------------|-------------------------|-------------------------|
F#|-------------------------|-------------------------|-------------------------|-------------------------|
D |-------------------------|-------------------------|-------------------------|-------------------------|
A |-------------------------|-------------------------|-------------------------|-------------------------|
D |-2--2--2--2--2--2--2--2--|-2--2--2--2--2--2--2--2--|-2--2--2--2--2--2--2--2--|-------------------------|


[Intro / Verse]

D |-------------------------|-------------------------|
A |-------------------------|-------------------------|
F#|-------------------------|-------------------------| x3
D |-------------------------|-------------------------|
A |-------------------2-----|-------------------------|
D |-4--4-----------------0--|-2--2--------------------|

D |-------------------------|-------------------------|
A |-------------------------|-------------------------|
F#|-------------------------|-------------------------| 
D |-------------------------|-------------------------|
A |-------------------------|-------------------------|
D |-4--4--------------------|-2--2--------------------|


[Pre-chorus]

D |-------------------------|-------------------------|-------------------------|
A |-------------------------|-------------------------|-------------------------|
F#|-------------------------|-------------------------|-------------------------|
D |-------------------------|-------------------------|-------------------------|
A |-------------------5-----|------------------2------|------------------7--9---|
D |-9--------------------0--|-5-----5--4----------0---|-2------2--0-------------|

D |-------------------------|-------------------------|
A |-------------------------|-------------------------|
F#|-------------------------|-------------------------| 
D |-------------------------|-------------------------|
A |-------------------------|-------------------------|
D |-9--9--9--9--9--9--9--9--|-9--9--9--9--9--9--9--9--|


[Chorus]

D |-------------------------|-------------------------|-------------------------|-------------------------|
A |-------------------------|-------------------------|-------------------------|-------------------------|
F#|-------------------------|-------------------------|-------------------------|-------------------------|
D |-------------------------|-------------------------|-------------------------|-------------------------|
A |-2-----------------------|-------------------------|-------------------------|-------------------------|
D |-------------------------|-4-----------4-----------|-0-----------------------|-12-11-12-11-12\---7\----|

D |-------------------------|-------------------------|-------------------------|-------------------------|
A |-------------------------|-------------------------|-------------------------|-------------------------|
F#|-------------------------|-------------------------|-------------------------|----------------8--------|
D |-------------------------|-------------------------|-------------------------|-------------------9-----|
A |-2-----------------2-----|-------------------------|-------------------------|-7--7--7--7--9-----------|
D |-------------------------|-4-----------4-----------|-0-----------------------|-------------------------|


D |-------------------------|-------------------------|-------------------------|-------------------------|
A |-------------------------|-------------------------|-------------------------|-------------------------|
F#|-------------------------|-------------------------|-------------------------|-------------------------|
D |-------------------------|-------------------------|-------------------------|-------------------------|
A |-------------------------|-------------------------|-------------------------|-------------------------|
D |-2--2--2--2--2--2--2--2--|-2--2--2--2--2--2--2--2--|-2--2--2--2--2--2--2--2--|-------------------------|


[Bridge]

D |-------------------------|-------------------------|-------------------------|-------------------------|
A |-------------------------|-------------------------|-------------------------|-------------------------|
F#|-------------------------|-------------------------|-------------------------|-------------------------| x4
D |-------------------------|-------------------------|-------------------------|-------------------------|
A |-2-----------------------|-------------------------|-------------------------|-------------------------|
D |-------------------------|-4-----------4-----------|-0-----------------------|-12-11-12-11-12\---7\----|


[Outro]

D |-------------------------|-------------------------|-------------------------|-------------------------|
A |-------------------------|-------------------------|-------------------------|-------------------------|
F#|-------------------------|-------------------------|-------------------------|-------------------------| x3
D |-------------------------|-------------------------|-------------------------|-------------------------|
A |-5-----------------------|-0-----------0-----------|-------------------------|-------------------------|
D |-------------------------|-------------------------|-3-----------------------|-14-15-14-15-14\--10\----|

D |-------------------------|-------------------------|-------------------------|-------------------------|
A |-------------------------|-------------------------|-------------------------|-------------------------|
F#|-------------------------|-------------------------|-------------------------|----------------11-------|
D |-------------------------|-------------------------|-------------------------|-------------------12----|
A |-5-----------------------|-0-----------0-----------|-------------------------|-10-10-10-10-12----------|
D |-------------------------|-------------------------|-3-----------------------|-------------------------|

D |-------------------------|-------------------------|-------------------------|-------------------------|
A |-------------------------|-------------------------|-------------------------|-------------------------|
F#|-------------------------|-------------------------|-------------------------|-------------------------|
D |-------------------------|-------------------------|-------------------------|-------------------------|
A |-------------------------|-------------------------|-------------------------|-------------------------|
D |-2--2--2--2--2--2--2--2--|-2--2--2--2--2--2--2--2--|-2--2--2--2--2--2--2--2--|-------------------------|



Check out my Guitar Pro tab aswell for synth, horns and drums
Suggest correction
Creating personal tab
Creating personal tab
You can edit any tab online and save it as your Personal.

You can edit, replace or remove any tab part or add personal notes – all changes will be seen only by you.

Personal tabs can be accessed anytime from any device, even offline.
Learn more »
Give kudos to tab author, rate the tab!
1 2 3 4 5
comments
print report bad tab
guest
You may want to rate the tab now too:
select rating
Wanna post a correction for this tab? Suggest correction