Oops, an error
Loading. Please wait.
We have an official Interlude 2 tab made by UG professional guitarists. Check out the tab »
×
by Alt-J
1,409 views 3 this week
2 commentsread comments
1 2 3 4 5
x 3
add to favorites
×
Save as Personal and add changes to this tab that will be seen only by you. Learn more ›
×
You can save this tab as Personal to edit and correct it or add notes. All changes will be seen only by you. Learn more »
launch autoscroll
font size
0
reset
guitar tuner
edit
Autoscroll
slow
fast
+/-
esc
set tempo
stop
Difficulty
I think I've got this pretty right. Beautiful song, you'll get the timing :).

G|-------------------------------------------------------------------7-9/7-|
D|---------------------------------------------7----9--7--7----9--7--------|
A|-5----9--7--5----9--7--5----9--7--5----9--7------------------------------|
E|-------------------------------------------------------------------------|

G|------------------------|
D|---------9--------9-----|
A|-10---10---7---10---5---|
E|------------------------|

G|-------------------------------------------------------------------7-9/7-|
D|---------------------------------------------7----9--7--7----9--7--------|
A|-9--7--5----9--7--5----9--7--5----9--7-----------------------------------|
E|-------------------------------------------------------------------------|

G|-------------------------|
D|---------9--------9/12---|
A|-10---10---7---10--------|
E|-------------------------|

            
            
Suggest correction
Creating personal tab
Creating personal tab
You can edit any tab online and save it as your Personal.

You can edit, replace or remove any tab part or add personal notes – all changes will be seen only by you.

Personal tabs can be accessed anytime from any device, even offline.
Learn more »
Give kudos to tab author, rate the tab!
1 2 3 4 5
comments
print report bad tab
2 comments total.
0 reply
peachmoonstone 10 Jun 29, 2014 09:20 PM

Been listening to the song and to me it sounds like it could be 7-9/11 on the G as opposed to 7-9/7. Not sure, just sounds a little better. Great tab though!

0 reply
ellenwatson 10 Aug 31, 2017 06:21 PM

There's actually not a bass line to this song, its played entirely on guitar tuned to Open D.

guest
Wanna post a correction for this tab? Suggest correction