Oops, an error
Loading. Please wait.

Intro Tab

version 1
version 1

Whole song

8,606 views 36 this week
no commentswrite comment
1 2 3 4 5
excellent!
x 7
add to favorites
launch autoscroll
font size
0
reset
how to read this tab
guitar tuner
Autoscroll
slow
fast
+/-
esc
set tempo
stop
Help us to improve Ultimate-Guitar.com Take our survey!
×
-------------------------------------------------------------------------------
                                INTRO - alt-J
-------------------------------------------------------------------------------
Tabbed by: what.you.doing.
E-mail: ryanengland@live.com

Tuning: Standard

0:00 - 0:24

[SILENCE]

0:25 - 0:29

e|-------------------|
B|-7-5-3-5-3-------0-|
G|-------------------|
D|-------------------|
A|-------------------|
E|-------------------|

0:30 - 1:07

e|10--10--10--10--10--10--10--10-------------10-------------10--------------|
B|--12--12--12--12--12--12--12--12--9h10h12----12--9h10h12-----12--9h10h12--|
G|--------------------------------------------------------------------------|
D|--------------------------------------------------------------------------|
A|--------------------------------------------------------------------------|
E|--------------------------------------------------------------------------|
e|10--------------10--------------10--------------10--------------10--------------|
B|---12--9h10h12-----12--9h10h12-----12--9h10h12-----12--9h10h12-----12--9h10h12--|
G|--------------------------------------------------------------------------------|
D|--------------------------------------------------------------------------------|
A|--------------------------------------------------------------------------------|
E|--------------------------------------------------------------------------------|

e|10--------------9--------------9--------------9---10-10-10-10-10-9-9-9--------|
B|---12--8h10h12----12--8h10h12----12--8h10h12----12---------------------9h10h12|
G|------------------------------------------------------------------------------|
D|------------------------------------------------------------------------------|
A|------------------------------------------------------------------------------|
E|------------------------------------------------------------------------------|

e|--10--------------10--------------10--------------10--------------9-------------|
B|-----12--9h10h12-----12--9h10h12-----12--9h10h12-----12--8h10h12----12--8h10h12-|
G|--------------------------------------------------------------------------------|
D|--------------------------------------------------------------------------------|
A|--------------------------------------------------------------------------------|
E|--------------------------------------------------------------------------------|

e|-9--------------9-------------------|
B|---12--8h10h12----12-12-12-12-12-12-|
G|------------------------------------|
D|------------------------------------|
A|------------------------------------|
E|------------------------------------|

1:08 - 1:21

[SILENCE]

1:22 - 1:47 [OPEN FOR INTERPRETATION]

e|--------------------------------------------------------------------|
B|--------------------------------------------------------------------|
G|--------------------------------------------------------------------|
D|-9----9--12----12--5----5--9----9--9----9--12----12--5----5--9----9-|
A|-9----9--12----12--5----5--9----9--9----9--12----12--5----5--9----9-|
E|-7----7--10----10--3----3--7----7--7----7--10----10--3----3--7----7-|

e|--------------------------------------------------------------------|
B|--------------------------------------------------------------------|
G|--------------------------------------------------------------------|
D|-9----9--12----12--5----5--9----9--9----9--12----12--5----5--9----9-|
A|-9----9--12----12--5----5--9----9--9----9--12----12--5----5--9----9-|
E|-7----7--10----10--3----3--7----7--7----7--10----10--3----3--7----7-|

1:48 - 1:50

[SILENCE]

1:51 - 2:38

This was transcribed to kind of "blend" the first and second guitar 
parts so that one person could play this entire section. Its open
to interpretation. 

e|--------------------------------------------------------------------|
B|--------------------------------------------------------------------|
G|--------------------------------------------------------------------|
D|--------------------------------------------------------------------|
A|--------------------------------------------------------------------|
E|-7-7-7-7-7-7-7-/10-----10-10-10-10-10-10-10-3-3-3-3-3-3-3-/7-----7-7|

e|--------------------------------------------------------------------|
B|--------------------------------------------------------------------|
G|--------------------------------------------------------------------|
D|--------------------------------------------------------------------|
A|---9p8h9------------------------------------------------------------|
E|-7---------7-7-7-7-7-7-7-/10-----10-10-10-10-10-10-10-3-3-3-3-3-3-3-|

e|--------------------------------------------------------------------|
B|--------------------------------------------------------------------|
G|--------------------------------------------------------------------|
D|--------------------------------------------------------------------|
A|--5-5-5-7-7-7-5-7------------------------------------------7--------|
E|-/7---------------7-------7-10-9---5---5---5-/9---9---7--7---9--5-5-|

e|--------------------------------------------------------------------|
B|--------------------------------------------------------------------|
G|--------------------------------------------------------------------|
D|--------------------------------------------------------------------|
A|----------------------------------------------7---------------------|
E|5-10p9h10p9-7-10-9---5---5---5-/9---9---7---7---9--5-5-5-10p9h10p9-7|

e|--------------------------------------------------------------------|
B|--------------------------------------------------------------------|
G|--------------------------------------------------------------------|
D|--------------------------------------------------------------------|
A|-----------------------------------------7--------------------------|
E|-------7-10-9---5---5---5-/9---9---7-------9--5-5-5-10p9h10p9-7-----|

e|--------------------------------------------------------------------|
B|--------------------------------------------------------------------|
G|--------------------------------------------------------------------|
D|--------------------------------------------------------------------|
A|-----------------------------------7--------------------------------|
E|-7-10-9---5---5---5-/9---9---7---7---9--5-5-5-10p7h10p7h10--10------|

=============================================================================

In the song, this part is played on the piano, but for purposes of preforming,
I thought I might as well add a tab transcribing the piano part for the guitar, 
just in case there are more than one guitars present in a performance and
no piano is readily available.

0:00 - 1:07 ON PIANO

e|-----------------------------------------------------------------|
B|-----------------------------------------------------------------|
G|-7---7---7---7---7---7---7---7---6---6---6---6---6---6---6---6---|
D|---9---9---9---9---9---9---9---9---7---7---7---7---7---7---7---7-| (REPEAT)
A|-----------------------------------------------------------------|
E|-----------------------------------------------------------------|

1:08 - 1:20 ON PIANO

e|---------------------------------------------------------------------------|
B|---------------------------------------------------------------------------|
G|-4------4-7-------------------4-4--------4------4-7------------------4--7--|
D|---------------------5-----5--------------------------------5------5-------|
A|------------5---------------------------------------5--5--5----------------|
E|---------------------------------------------------------------------------|

==============================================================================

************************************

| /   slide up
| \   slide down
| h   hammer-on
| p   pull-off
| ~   vibrato
| +   harmonic
| x   Mute note
| b   Bend
| pb  Pre-bend
| br  Bend release
| pbr Pre-bend release
| brb Bend release bend

************************************
Suggest correction
comments
print report bad tab
guest
You may want to rate the tab now too:
select rating
Wanna post a correction for this tab? Suggest correction