Oops, an error
Loading. Please wait.

Left Hand Free Tab

version 1
version 1

Whole song

Interactive

Video

133,594 views 525 this week
7 commentsread comments
1 2 3 4 5
x 67
add to favorites
launch autoscroll
font size
0
reset
how to read this tab
guitar tuner
Autoscroll
slow
fast
+/-
esc
set tempo
stop
Help us to improve Ultimate-Guitar.com Take our survey!
×
Author
Difficulty
Tuning
Capo
novice
D A D G B E
1st fret
Tunning: Drop D w/ Capo 1st fret

YouTube Lesson: https://www.youtube.com/watch?v=Z-ZDJaj2QrA


[Intro/Main Riff]

(GTR 1)
e|-------------------------------------|
B|-------------------------------------|
G|---(1)-------------------------------|
D|----2--0-0-0-0-0-0h2---------5---5---|
A|-----------------------1-2-----------|
D|-2-------------------0-----2---2---2-|


[Chorus] 

(GTR 2)
e|-----------------------------------------|
B|-5--3----3-5--3--------------------------|
G|-4--2----2-4--2--------------------------|
D|-6--4----4-6--4-------5-5-5-5-5-5-5-5--7-|
A|----------------------5-5-5-5-5-5-5-5--7-|
D|----------------------5-5-5-5-5-5-5-5--7-|

(GTR 1)
e|-------------------------------------|
B|-------------------------------------|
G|---(1)-------------------------------|
D|----2--0-0-0-0-0-0h2---------5---5---|
A|-----------------------1-2-----------|
D|-2-------------------0-----2---2---2-|


[Verse] 

(GTR 2)
e|------------------------------------------------------------------|
B|-5--3----3-5--3----3-5--3----3-5--3----3-5--3----3-5--3----3-5--3-|
G|-4--2----2-4--2----2-4--2----2-4--2----2-4--2----2-4--2----2-4--2-|
D|-6--4----4-6--4----4-6--4----4-6--4----4-6--4----4-6--4----4-6--4-|
A|------------------------------------------------------------------|
D|------------------------------------------------------------------|

(GTR 1)
e|-------------------------------------|
B|-------------------------------------|
G|---(1)-------------------------------|
D|----2--0-0-0-0-0-0h2---------5---5---|
A|-----------------------1-2-----------|
D|-2-------------------0-----2---2---2-|


[Breakdown]

e|--------------------|
B|-5--5-5-5-----------|
G|-6--6-6-6--1--1-1-1-|
D|-6--6-6-6--2--2-2-2-| x2
A|-4--4-4-4--2--2-2-2-|
D|-----------2--2-2-2-|  
Suggest correction
comments
print report bad tab
7 comments total. Showing first comments. show 1 bad comment
0 reply
Chlored 88 Jul 25, 2014 03:18 PM

Thank you for the video. It really helped clear up the chorus.

+3 reply
davesmack87 10 Aug 04, 2014 05:55 AM, edited at 05:58 am

There is absolutely no reason to tune to drop d then put a capo on the first fret...That is absolutely pointless.Tune your e string a 1/2 step down if anything, but this can be played standard tuned without a capo.

You miss an e flat in the intro riff but it's so short that you can just play e and it will sound the same.

guest
You may want to rate the tab now too:
select rating
Wanna post a correction for this tab? Suggest correction