Oops, an error
Loading. Please wait.

Ms Tab

8,298 views 12 this week
2 commentsread comments
1 2 3 4 5
worth learning
x 9
add to favorites
launch autoscroll
font size
0
reset
how to read this tab
guitar tuner
Autoscroll
slow
fast
+/-
esc
set tempo
stop
Help us to improve Ultimate-Guitar.com Take our survey!
×
Difficulty
intermediate
Chords throughout song: 

F Bb Dm Dm

Dark seeks dark bit:

  The dark seeks dark
e|-------------------|
B|-------------------|
G|-10-10---10---10---|
D|-12-12---12---10---| x2
A|-------------------|
E|-------------------|
   Oh   oh     darker
e|-------------------|
B|-------------------|
G|-10---10/12---10-10|
D|-8------------7--7-| x2
A|-------------------|
E|-------------------|
Suggest correction
comments
print report bad tab
2 comments total.
0 reply
anon11111 10 wrote on March 29 2016, 10:22 pm

At the end I hear something like:

e|-5-3-----------------------------------------------------|
B|-----6---6---6---6---5-----------------------------------|
G|---------5h7-5h7-5h7-6-----------------------------------|
D|--------------------------------3-----3----3-------------|
A|--------------------------3--5-----3-5--3-5--------------|
E|-------------------------------------------------5-----3-| and repeat

0 reply
anon11111 10 wrote on March 29 2016, 10:24 pm

At the end I hear something like:

e|-5-3-----------------------------------------------------|
B|-----6---6---6---6---6-----------------------------------|
G|---------5h7-5h7-5h7-5-----------------------------------|
D|--------------------------------3-----3----3-------------|
A|--------------------------3--5-----3-5--3-5--------------|
E|-------------------------------------------------5-----3-| and repeat

guest
You may want to rate the tab now too:
select rating
Wanna post a correction for this tab? Suggest correction