Oops, an error
Loading. Please wait.

Taro tab

version 1
version 1

Interactive

by Alt-J
98,961 views 351 this week
8 commentsread comments
1 2 3 4 5
x 43
add to favorites
×
Save as Personal and add changes to this tab that will be seen only by you. Learn more ›
×
You can save this tab as Personal to edit and correct it or add notes. All changes will be seen only by you. Learn more »
launch autoscroll
font size
0
reset
how to read this tab
guitar tuner
edit
Autoscroll
slow
fast
+/-
esc
set tempo
stop
-------------------------------------------------------------------------------
                             Taro - ∆ (alt-J)
-------------------------------------------------------------------------------
Tabbed by: Johan 
E-mail: johangirod[arobas]gmail[dot]com
[V2]


[INTRO :]
e|------14-------10-----2-----3--------------------------|
B|---12-------10------3-----2-------0-----0-----3-----2--|
G|14-------11-------4-----2-------0-----0-----4-----2----|
D|------------------------------2-----0------------------|
A|------------------------------------------2-----0------|
D|-------------------------------------------------------|


[VERSE 1:]
  Dm    C         Gm    F
e|----1-----0---------------------|
B|--3-----1-----------------------|
G|------------------0-3---0-2-----|
D|0-------------------------------|
A|------3-------------------------|
D|----------------5-----3---------| x3
     
Indo china, Capa jumps Jeep, two feet creep up the road
To photo, to record meat lumps and war,
They advance as does his chance – 

A capela : 
Oh-oh-oh- 


[VERSE 2 :]

  Dm    C         Gm    F
e|----1-----0---------------------|
B|--3-----1-----------------------|
G|------------------0-3---0-2-----|
D|0-------------------------------|
A|------3-------------------------|
D|----------------5-----3---------| x3
very yellow white flash.
A violent wrench grips mass, rips light, tears limbs like rags,
Burst so high finally Capa lands,
Mine is a watery pit. Painless with immense distance 

e|--------------------------------|
B|--------------------3-------4---|
G|----0-------0-----3---3---2---1-|
D|--1---1---1---1-5-------3-------|
A|3-------1-----------------------|
D|--------------------------------|
From medic from colleague, friend, enemy,
foe, him five yards from his leg, From you Taro-


[CHORUS :]

  Dm    C         Gm    F
e|----1-----0---------------------|
B|--3-----1-----------------------|
G|------------------0-3---0-2-----|
D|0-------------------------------|
A|------3-------------------------|
D|----------------5-----3---------| x2
-o-o-o.

A capela : 
Do not spray into eyes – I have sprayed you into my eyes.

  Dm    C         Gm    F
e|----1-----0---------------------|
B|--3-----1-----------------------|
G|------------------0-3---0-2-----|
D|0-------------------------------|
A|------3-------------------------|
D|----------------5-----3---------| x2


[VERSE 3] (same tab as verse 2) : 
3:10 pm, Capa pends death, quivers, last rattles, last chokes
All colours and cares glaze to grey, shrivelled and stricken to dots,
Left hand grasps what the body grasps not – le photographe est mort.


[VERSE 4 :]
3.1415, alive no longer my amour, faded for home May of '54
Doors open like arms my love, Painless with a great closeness
To Capa, to Capa Capa dark after nothing,
re-united with his leg and with you, Taro -


[CHORUS :]
-o-o-o

A Capela : 
Do not spray into eyes – I have sprayed you into my eyes.
Hey Taro!


[ENDING :]
...

e|------------------------------|
B|------------------------------|
G|------------------------------|
D|------------------------------|
A|--------0-5-5------------0----|
D|-0--0-3-------3-5--5-3-5---3-3|


____________

During the chorus, you can also hear a guitare that goes like this :


e|----13-13--13-13---13--13---13-13-13-13-------|
B|10--------------------------------------10-10-|
G|----------------------------------------------|
D|----------------------------------------------|
A|----------------------------------------------|
D|----------------------------------------------|

____________

04/02/13 : Updated version, with the correct intro and verse. Thank you to the 
people who pointed it out :)

____________

If you have any comment, rectification, questions, don't hesitate to send me a 
mail. It's my first tab, and it might not be very clear.
Suggest correction
Creating personal tab
Creating personal tab
You can edit any tab online and save it as your Personal.

You can edit, replace or remove any tab part or add personal notes – all changes will be seen only by you.

Personal tabs can be accessed anytime from any device, even offline.
Learn more »
comments
print report bad tab
8 comments total. Showing first comments.
0 reply
bengtaaron 589 Dec 13, 2012 11:53 PM

the bass notes of the Gm and F should be played on the bottom E string, not the A

0 reply
MiniMaggit 51 Aug 14, 2013 12:05 PM

The guitar in the chorus that plays the riff on the 10th and 13th fret is actually played with tape instead of a pick which is how he gets the sound

0 reply
bekerhank 343 Jan 03, 2015 06:17 PM

I think the riff during the chorus goes like this actually

e|----13-13--13-13---13--13---13-13-13-13-10-10-|
B|10--------------------------------------------|
G|----------------------------------------------|
D|----------------------------------------------|
A|----------------------------------------------|
E|----------------------------------------------|

guest
You may want to rate the tab now too:
select rating
Wanna post a correction for this tab? Suggest correction