Oops, an error
Loading. Please wait.

Tessellate bass

by Alt-J
29,165 views 42 this week
2 commentsread comments
1 2 3 4 5
x 15
add to favorites
×
Save as Personal and add changes to this tab that will be seen only by you. Learn more ›
×
You can save this tab as Personal to edit and correct it or add notes. All changes will be seen only by you. Learn more »
launch autoscroll
font size
0
reset
guitar tuner
edit
Autoscroll
slow
fast
+/-
esc
set tempo
stop
Author
-------------------------------------------------------------------------------
                             Tessellate – Alt-J
-------------------------------------------------------------------------------
Tabbed by: Clowesy
E-mail: eleanorclowes@hotmail.com

Tuning:EADG (Standard)

[Main riff:] (0.16-0.32)

G|-12--12-9-7---9--9---------------------------------------------------------|
D|9--9--------7--7-----7/----------------------------------------------------|
A|---------------------------------------------------------------------------|
E|---------------------------------------------------------------------------|
Repeat 4 times, on last time miss out final up slide from 7th fret


[Chorus:] (0.33-0.53)

G|---------------------------------------------------------------------------|
D|---------------------9-----------------------------------------------------|
A|7--7-5--------7—7/10---10-7--------7--5--------7--5--/12----7--7-5--3------|
E|--------3--5-----------------3--5--------3--5------------------------------|

[Main Riff again:] (0.56-1.11)

G|-12--12-9-7---9--9---------------------------------------------------------|
D|9--9--------7--7-----7/----------------------------------------------------|
A|---------------------------------------------------------------------------|
E|---------------------------------------------------------------------------|
Repeat 4 times, on last time miss out final up slide from 7th fret

[Bridge:] (1.12-1.18)
G|---------------------------------------------------------------------------|
D|---------------------------------------------------------------------------|
A|---------------------------------------------------------------------------|
E|0(hold)--------------------------------------------------------------------|


Bass break from 1.19-1.44


Main Riff for a 3rd time: (1.45-2.17)

G|-12--12-9-7---9--9---------------------------------------------------------|
D|9--9--------7--7-----7/----------------------------------------------------|
A|---------------------------------------------------------------------------|
E|---------------------------------------------------------------------------|
Repeat 8 times, on last time miss out final up slide from 7th fret


[Chorus again:] (2.18-2.38)

G|---------------------------------------------------------------------------|
D|---------------------9-----------------------------------------------------|
A|7--7-5--------7—7/10---10-7--------7--5--------7--5--/12----7--7-5--3------|
E|--------3--5-----------------3--5--------3--5------------------------------|

[Main riff 4th time:] (2.40-2.55)

G|-12--12-9-7---9--9---------------------------------------------------------|
D|9--9--------7--7-----7/----------------------------------------------------|
A|---------------------------------------------------------------------------|
E|---------------------------------------------------------------------------|

Repeat 3 times, on the last time just play:

G|-12--12-9-7----------------------------------------------------------------|
D|9--9-----------------------------------------------------------------------|
A|---------------------------------------------------------------------------|
E|---------------------------------------------------------------------------|


************************************

| /  Slide up 

************************************

            
            
Suggest correction
Creating personal tab
Creating personal tab
You can edit any tab online and save it as your Personal.

You can edit, replace or remove any tab part or add personal notes – all changes will be seen only by you.

Personal tabs can be accessed anytime from any device, even offline.
Learn more »
comments
print report bad tab
2 comments total.
+4 reply
Jilljoy 54 Sep 07, 2012 06:18 AM

The main riff, in my opinion, sounds better like this.
G|-12--12-9----9--9---------------------------------------------------------|
D|9--9-----9-7--7-----7/----------------------------------------------------|
A|--------------------------------------------------------------------------|
E|--------------------------------------------------------------------------|

Great tab though :)

0 reply
taliesinelessar 10 Jun 24, 2014 02:17 PM

You definitely got this right, but I find it easier to play like this. Just preference really.

G|------------------------------------------------------------------------|
D|---------------------9--------------------------------------------------|
A|7--7-5--------7?7/10---10----------7--5--------7--5--/12----7--7-5--3---|
E|--------3--5-------------12--3--5--------3--5---------------------------|

guest
You may want to rate the tab now too:
select rating
Wanna post a correction for this tab? Suggest correction