Oops, an error
Loading. Please wait.

Tessellate tab

version 1
version 1

Whole song

by Alt-J
33,571 views 66 this week
1 commentread comment
1 2 3 4 5
x 15
add to favorites
×
Save as Personal and add changes to this tab that will be seen only by you. Learn more ›
×
You can save this tab as Personal to edit and correct it or add notes. All changes will be seen only by you. Learn more »
launch autoscroll
font size
0
reset
how to read this tab
guitar tuner
edit
Autoscroll
slow
fast
+/-
esc
set tempo
stop
Author
Difficulty
mail : aureliensanchez@hotmail.fr
youtube : http://www.youtube.com/user/monkeysgibson?feature=watch
http://www.youtube.com/watch?v=HkzvNkIuy4w
Standard Tuning

[Intro]
e|--------------------|
B|------0-------------|
G|------0-------------|    x4
D|------2-------------|
A|------2-------------|
E|--------------------|

[Verse]
Em - D sus2
e|--------------------------------0--------------------------------------------|
B|---------------0----------3--------3-----------------------------------------|
G|-------0---------0-----------2--------2--------------------------------------|
D|-----------2--------2-0------------------------------------------------------|
A|----2------------------------------------------------------------------------|
E|-----------------------------------------------------------------------------|

[Bridge]
" Go alone my flower ... Keep us on my heart "
Em - D sus 2 : one strum

[Chorus]
Em - G - A ( In bar chords look my cover )


            
            
Suggest correction
Creating personal tab
Creating personal tab
You can edit any tab online and save it as your Personal.

You can edit, replace or remove any tab part or add personal notes – all changes will be seen only by you.

Personal tabs can be accessed anytime from any device, even offline.
Learn more »
comments
print report bad tab
1 comment total.
+1 reply
grizzstraight21 150 Jul 09, 2015 11:10 AM

E--------------------------|
B--------------------------|
G--------------------------|
D---5---5-------2---2------|
A--------------------------|
E-7---7---7-6-5---5---5/7--|

I like your cover and you can still play the intro riff your way but I hadn't been able to find a tab for the intro that really sounded spot on and I think this is the way that he plays it. I was going to make my own tab but really all I have to add is the correct intro.

guest
You may want to rate the tab now too:
select rating
Wanna post a correction for this tab? Suggest correction