Oops, an error
Loading. Please wait.

Addicted To Pain Tab

version 2
version 2

Whole song

Interactive

25,098 views 129 this week
10 commentsread comments
1 2 3 4 5
x 10
add to favorites
launch autoscroll
font size
0
reset
how to read this tab
guitar tuner
Autoscroll
slow
fast
+/-
esc
set tempo
stop
Help us to improve Ultimate-Guitar.com Take our survey!
×
Author
Tuning
C# G# C# F# A# D#
Well guys this is my first tAb| on UG so I hope you guys enjoy it.
I am still working on the solo, so I'll put it up later on and even do a tutorial video
on You Tube explaining how to play it.
But till then, enjoy the rest of the song...

Tuning: Drop D half step down (Db| Ab| Db| Gb| Bb| Eb|)

[Intro]
Eb|----------------------------------------------------------------------|
Bb|----------------------------------------------------------------------|
Gb|----------------------------------------------------------------------|
Db|----------------------------------------------------------------------|
Ab|----------------------------------------------------------------------|
Db|-0--0--0--0--13b-13b-13b--0--10-10-10--0--0--0--0--6b-6b-6b--0--4-4-4-|

Eb|----------------------------------------------------------------------|
Bb|----------------------------------------------------------------------|
Gb|----------------------------------------------------------------------|
Db|----------------------------------------------------------------------|
Ab|----------------------------------------------------------------------|
Db|-0--0--0--0--13b-13b-13b--0--10-10-10--0--0--0--0--1-1-1-1-1-1-1-1----|
                                                      * * * * * * * *

Eb|----------------------------------------------------------------------|
Bb|----------------------------------------------------------------------|
Gb|----------------------------------------------------------------------|
Db|----------------------------------------------------------------------|
Ab|----------------------------------------------------------------------|
Db|-0--0--0--0--13b-13b-13b--0--10-10-10--0--0--0--0--6b-6b-6b--0--4-4-4-|

Eb|----------------------------------------------------------------------|
Bb|----------------------------------------------------------------------|
Gb|----------------------------------------------------------------------|
Db|----------------------------------------------------------------------|
Ab|----------------------------------------------------------------------|
Db|-0--0--0--0--13b-13b-13b--0--10-10-10--0--0--0--0--1-1-1-1-1-1-1-1----|
                                                      * * * * * * * *

[Pre-Verse 1]
Eb|-----------------------------------------------------------------------------------|
Bb|-----------------------------------------------------------------------------------|
Gb|-----------------------------------------------------------------------------------|
Db|-----------------------------------------------------------------------------------|
Ab|-12----------------12-----------------12-----------------12----13-12---------------|
Db|---0-0-0-0-0-12-13----0-0-0-0-0-12-13----0-0-0-0-0-12-13----13-12-----13-12-13-----|
      * * * * * *        * * * * * *        * * * * * *        * *

Eb|-------------------------------------------------------------------------------|
Bb|-------------------------------------------------------------------------------|
Gb|-------------------------------------------------------------------------------|
Db|-------------------------------------------------------------------------------|
Ab|-12----------------12-----------------12-----------------12----15-12-----------|
Db|---0-0-0-0-0-12-13----0-0-0-0-0-12-13----0-0-0-0-0-12-13----13-12-----13-12-13-|
      * * * * * *        * * * * * *        * * * * * *        * *

[Verse]
Eb|-------------------------------------------------------------------------------|
Bb|-------------------------------------------------------------------------------|
Gb|-------------------------------------------------------------------------------|
Db|-------------------------------------------------------------------------------|
Ab|-12----------------12-----------------12-----------------12----13-12-----------|
Db|---0-0-0-0-0-12-13----0-0-0-0-0-12-13----0-0-0-0-0-12-13----13-12-----13-12-13-|
      * * * * * *        * * * * * *        * * * * * *        * *

Eb|--------------------------------------------------------------------------------------------|
Bb|--------------------------------------------------------------------------------------------|
Gb|--------------------------------------------------------------------------------------------|
Db|--------------------------------------------------------------------------------------------|
Ab|-12-------------------12---------------------12----------------------12-------15-12---------|
Db|----15-15-15-15-12-15---15-15-15-15-15-12-15----15-15-15-15-15-12-15----15-12-------15-12-15|
    *  *  *  *  *  *        *  *  *  *  *  *        *  *  *  *  *  *

Eb|-------------------------------------------------------------------------------|
Bb|-------------------------------------------------------------------------------|
Gb|-------------------------------------------------------------------------------|
Db|-------------------------------------------------------------------------------|
Ab|----------------------12-----------------------12-12-12-12---------------------|
Db|-10-10-10-10-10-10-12----10-10-10-10-10-8-8-8-8------------7-7-7-7-3-3-3-3-----|
       *  *  *  *  *        *  *  *  *  *  * * * *            * * * * * * * *

Eb|-------------------------------------------------------------------------------|
Bb|-------------------------------------------------------------------------------|
Gb|-------------------------------------------------------------------------------|
Db|----------------------------------------------------8----7---------------------|
Ab|----------------------------------------------------8----7---------------------|
Db|-10-0-0-0-0-0-0-0-10-0-0-0-0-0-0-0-10-0-0-0-0-0-0-0-8----7---------------------|
       * * * * * * *    * * * * * * *    * * * * * * *

Eb|-------------------------------------------------------------------------------|
Bb|-------------------------------------------------------------------------------|
Gb|-------------------------------------------------------------------------------|
Db|-------------------------------------------------------------------------------|
Ab|-12----------------12-----------------12-----------------12----13-12-----------|
Db|---0-0-0-0-0-12-13----0-0-0-0-0-12-13----0-0-0-0-0-12-13----0-0-----13-12-13---|
      * * * * * *        * * * * * *        * * * * * *        * *

Eb|---------------------------------------------------------------------------------------|
Bb|---------------------------------------------------------------------------------------|
Gb|---------------------------------------------------------------------------------------|
Db|---------------------------------------------------------------------------------------|
Ab|----------------------12---------------------12----------------------12-15-12----------|
Db|-15-15-15-15-15-12-15---15-15-15-15-15-12-15----15-15-15-15-15-12-15---------12-10-12--|
    *  *  *  *  *  *        *  *  *  *  *  *        *  *  *  *  *  *

Eb|-------------------------------------------------------------------------------|
Bb|-------------------------------------------------------------------------------|
Gb|-------------------------------------------------------------------------------|
Db|-------------------------------------------------------------------------------|
Ab|----------------------12-----------------------12-12-12-12---------------------|
Db|-10-10-10-10-10-10-12----10-10-10-10-10-8-8-8-8------------7-7-7-7-3-3-3-3-----|
       *  *  *  *  *        *  *  *  *  *  * * * *            * * * * * * * *

Eb|-------------------------------------------------------------------------------|
Bb|-------------------------------------------------------------------------------|
Gb|-------------------------------------------------------------------------------|
Db|----------------------------------------------------8----7---------------------|
Ab|----------------------------------------------------8----7---------------------|
Db|-10-0-0-0-0-0-0-0-10-0-0-0-0-0-0-0-10-0-0-0-0-0-0-0-8----7---------------------|
       * * * * * * *    * * * * * * *    * * * * * * *

[Chorus]
Eb|-------------------------------------------------------------------------------|
Bb|-------------------------------------------------------------------------------|
Gb|-7------9-----10-------------------------5------3------2-----------------------|
Db|-7------9-----10---10--------------------3------1------0-----------------------|
Ab|-5------7-----8----8---------------------3------1------0-----------------------|
Db|-------------------8---------------------3------1------0-----------------------|

Eb|-------------------------------------------------------------------------------|
Bb|-------------------------------------------------------3-----------------------|
Gb|-7------9-----10---------------------------------------2-----------------------|
Db|-7------9-----10---10--------------------3------1------0-----------------------|
Ab|-5------7-----8----8---------------------3------1------0-----------------------|
Db|-------------------8---------------------3------1------0-----------------------|

[Pre-Verse 2]
Eb|-------------------------------------------------------------------------------|
Bb|-------------------------------------------------------------------------------|
Gb|-------------------------------------------------------------------------------|
Db|-------------------------------------------------------------------------------|
Ab|-12----------------12-----------------12-----------------12----15-12-----------|
Db|---0-0-0-0-0-12-13----0-0-0-0-0-12-13----0-0-0-0-0-12-13----0-0-----13-12-13---|
      * * * * * *        * * * * * *        * * * * * *        * *

[Verse]
Eb|-------------------------------------------------------------------------------|
Bb|-------------------------------------------------------------------------------|
Gb|-------------------------------------------------------------------------------|
Db|-------------------------------------------------------------------------------|
Ab|-12----------------12-----------------12-----------------12----13-12-----------|
Db|---0-0-0-0-0-12-13----0-0-0-0-0-12-13----0-0-0-0-0-12-13----0-0-----13-12-13---|
      * * * * * *        * * * * * *        * * * * * *        * *

Eb|---------------------------------------------------------------------------------------|
Bb|---------------------------------------------------------------------------------------|
Gb|---------------------------------------------------------------------------------------|
Db|---------------------------------------------------------------------------------------|
Ab|----------------------12---------------------12----------------------12-15-12----------|
Db|-15-15-15-15-15-13-15---15-15-15-15-15-13-15----15-15-15-15-15-13-15---------12-10-12--|
    *  *  *  *  *  *        *  *  *  *  *  *        *  *  *  *  *  *

Eb|-------------------------------------------------------------------------------|
Bb|-------------------------------------------------------------------------------|
Gb|-------------------------------------------------------------------------------|
Db|-------------------------------------------------------------------------------|
Ab|----------------------12-----------------------12-12-12-12---------------------|
Db|-10-10-10-10-10-10-12----10-10-10-10-10-8-8-8-8------------7-7-7-7-3-3-3-3-----|
       *  *  *  *  *        *  *  *  *  *  * * * *            * * * * * * * *
Eb|-------------------------------------------------------------------------------|
Bb|-------------------------------------------------------------------------------|
Gb|-------------------------------------------------------------------------------|
Db|----------------------------------------------------8----7---------------------|
Ab|----------------------------------------------------8----7---------------------|
Db|-10-0-0-0-0-0-0-0-10-0-0-0-0-0-0-0-10-0-0-0-0-0-0-0-8----7---------------------|
       * * * * * * *    * * * * * * *    * * * * * * *

Eb|-------------------------------------------------------------------------------|
Bb|-------------------------------------------------------------------------------|
Gb|-------------------------------------------------------------------------------|
Db|-------------------------------------------------------------------------------|
Ab|-12----------------12-----------------12-----------------12----13-12-----------|
Db|---0-0-0-0-0-12-13----0-0-0-0-0-12-13----0-0-0-0-0-12-13----0-0-----13-12-13---|
      * * * * * *        * * * * * *        * * * * * *        * *

Eb|---------------------------------------------------------------------------------------|
Bb|---------------------------------------------------------------------------------------|
Gb|---------------------------------------------------------------------------------------|
Db|---------------------------------------------------------------------------------------|
Ab|----------------------12---------------------12----------------------12-15-12----------|
Db|-15-15-15-15-15-13-15---15-15-15-15-15-13-15----15-15-15-15-15-13-15---------12-10-12--|
    *  *  *  *  *  *        *  *  *  *  *  *        *  *  *  *  *  *

Eb|-------------------------------------------------------------------------------|
Bb|-------------------------------------------------------------------------------|
Gb|-------------------------------------------------------------------------------|
Db|-------------------------------------------------------------------------------|
Ab|----------------------12-----------------------12-12-12-12---------------------|
Db|-10-10-10-10-10-10-12----10-10-10-10-10-8-8-8-8------------7-7-7-7-3-3-3-3-----|
       *  *  *  *  *        *  *  *  *  *  * * * *            * * * * * * * *

Eb|-------------------------------------------------------------------------------|
Bb|-------------------------------------------------------------------------------|
Gb|-------------------------------------------------------------------------------|
Db|----------------------------------------------------8----7---------------------|
Ab|----------------------------------------------------8----7---------------------|
Db|-10-0-0-0-0-0-0-0-10-0-0-0-0-0-0-0-10-0-0-0-0-0-0-0-8----7---------------------|
       * * * * * * *    * * * * * * *    * * * * * * *

[Chorus]
Eb|-------------------------------------------------------------------------------|
Bb|-------------------------------------------------------------------------------|
Gb|-7------9-----10-------------------------5------3------2-----------------------|
Db|-7------9-----10---10--------------------3------1------0-----------------------|
Ab|-5------7-----8----8---------------------3------1------0-----------------------|
Db|-------------------8---------------------3------1------0-----------------------|

Eb|-------------------------------------------------------------------------------|
Bb|-------------------------------------------------------3-----------------------|
Gb|-7------9-----10---------------------------------------2-----------------------|
Db|-7------9-----10---10--------------------3------1------0-----------------------|
Ab|-5------7-----8----8---------------------3------1------0-----------------------|
Db|-------------------8---------------------3------1------0-----------------------|

[Interlude]
Eb|----------------------------------------------------------------------|
Bb|----------------------------------------------------------------------|
Gb|----------------------------------------------------------------------|
Db|----------------------------------------------------------------------|
Ab|----------------------------------------------------------------------|
Db|-0--0--0--0--12b-12b-12b--0--10-10-10--0--0--0--0--6b-6b-6b--0--4-4-4-|

Eb|----------------------------------------------------------------------|
Bb|----------------------------------------------------------------------|
Gb|----------------------------------------------------------------------|
Db|----------------------------------------------------------------------|
Ab|----------------------------------------------------------------------|
Db|-0--0--0--0--12b-12b-12b--0--10-10-10--0--0--0--0--1-1-1-1-1-1-1-1----|
                                                      * * * * * * * *

Eb|----------------------------------------------------------------------|
Bb|----------------------------------------------------------------------|
Gb|----------------------------------------------------------------------|
Db|----------------------------------------------------------------------|
Ab|----------------------------------------------------------------------|
Db|-0--0--0--0--12b-12b-12b--0--10-10-10--0--0--0--0--6b-6b-6b--0--4-4-4-|

Eb|----------------------------------------------------------------------|
Bb|----------------------------------------------------------------------|
Gb|----------------------------------------------------------------------|
Db|----------------------------------------------------------------------|
Ab|----------------------------------------------------------------------|
Db|-0--0--0--0--12b-12b-12b--0--10-10-10--0--0--0--0--1-1-1-1-1-1-1-1----|
                                                      * * * * * * * *

Eb|------------------------------------------------------------------------|
Bb|------------------------------------13b-----------------------------13b-|
Gb|------------------------------------------------------------------------|
Db|------------------------------------------------------------------------|
Ab|------------------------------------------------------------------------|
Db|-0--0--0--0--12b-12b-12b--0--10-10-10--0--0--0--0--6b-6b-6b--0--4-4-4---|

Eb|-----------------------------------------------------------------------|
Bb|------------------------------------13b--------------------------------|
Gb|-----------------------------------------------------------------------|
Db|-----------------------------------------------------------------------|
Ab|-----------------------------------------------------------------------|
Db|-0--0--0--0--12b-12b-12b--0--10-10-10--0--0--0--0--1-1-1-1-1-1-1-1-----|
                                                      * * * * * * * *

Eb|------------------------------------------------------------------------|
Bb|------------------------------------13b-----------------------------13b-|
Gb|------------------------------------------------------------------------|
Db|------------------------------------------------------------------------|
Ab|------------------------------------------------------------------------|
Db|-0--0--0--0--12b-12b-12b--0--10-10-10--0--0--0--0--6b-6b-6b--0--4-4-4---|

Eb|-----------------------------------------------------------------------|
Bb|------------------------------------13b--------------------------------|
Gb|-----------------------------------------------------------------------|
Db|-----------------------------------------------------------------------|
Ab|-----------------------------------------------------------------------|
Db|-0--0--0--0--12b-12b-12b--0--10-10-10--0--0--0--0--1-1-1-1-1-1-1-1-----|
                                                      * * * * * * * *

[Solo]
Eb|-15b----13br------------------------------------------------------------------------------|
Bb|------------15-15~---15-13h15p13-10h13p10-------------------------------------------------|
Gb|------------------------------------------12-10-12b~-12r10-12~--10br9---------------------|
Db|----------------------------------------------------------------------10-12-10------------|
Ab|--------------------------------------------------------------------------------12-10-8\--|
Db|------------------------------------------------------------------------------------------|

Eb|---------------------------------------13/15\13---------------------|
Bb|------13/15\13---------13/15\13------------------------13/15\13-----|
Gb|--------------------------------------------------------------------|
Db|-14-15---------15-14-15--------15-14-15--------15-14-15-------------|
Ab|--------------------------------------------------------------------|
Db|--------------------------------------------------------------------|

Eb|-------------------10------------------------------------------------|
Bb|-10-------------10----13-10------------------------------------------|
Gb|---12-10-12-12b-------------12-10h12p10------------------------------|
Db|---------------------------------------12-10h12p10----------3--------|
Ab|--------------------------------------------------12-10\3-5---5~-----|
Db|---------------------------------------------------------------------|

Eb|---------------------------------------------------------------------|
Bb|---------------------------------------------------/18-17~-----------|
Gb|-5-----7-----10----9-----12-----10----15-----14----------------------|
Db|---------------------------------------------------------------------|
Ab|-3--0--5--0--8--0--7--0--10--0--8--0--13--0--12--0-------------------|
Db|---------------------------------------------------------------------|
       *     *     *     *      *     *      *      *

Here, instead of doing hammers and pull offs try to pick all the notes
Eb|------------------------------------------------------------------------------|
Bb|------------------------------------------------------------------------------|
Gb|----------12-14-15-14-12-------------------14-15-17-15-14---------------------|
Db|-12-14-15----------------15-14-12\14-15-17----------------17-15-14\15-17-19---|
Ab|------------------------------------------------------------------------------|
Db|------------------------------------------------------------------------------|

Eb|---------------------------------------------------------------------------------------|
Bb|-------------------------------------20-18-17-20-18-17-20b~r20-18-17-------------------|
Gb|-19-17-15-19-17-15-21-19-17-21-19-17-------------------------------19-17-------17-19~--|
Db|-------------------------------------------------------------------------19------------|
Ab|---------------------------------------------------------------------------------------|
Db|---------------------------------------------------------------------------------------|

Eb|--------------------------------------------------------------------|
Bb|---------------------------------------------------------10---------|
Gb|-5/10\7-5-7-5-7/12\7-5---5-7/10\7-5-7-5-7~---10~---12~--------------|
Db|-----------------------7--------------------------------------------|
Ab|--------------------------------------------------------------------|
Db|--------------------------------------------------------------------|

  [Chorus] starts here
Eb|--------------22~---------------------------------------22b---------|
Bb|-22~-----20-22------------------------------------------------------|
Gb|--------------------------------------------------------------------|
Db|--------------------------------------------------------------------|
Ab|--------------------------------------------------------------------|
Db|--------------------------------------------------------------------|


[Solo Rhythm]
Eb|-----------------------------------------------------------------------|
Bb|-----------------------------------------------------------------------|
Gb|----------------------------------------------------------7--------0---|
Db|-0----------------3----------------10----------------8----7--------0---|
Ab|-0----------------3----------------10----------------8----7--------0---|
Db|-0----------------3----------------10----------------8----7--------0---|

Eb|-------------------------------------------------------------------------------|
Bb|-------------------------------------------------------------------------------|
Gb|-------------------------------------------------------------------------------|
Db|-------------------------------------------------------------------------------|
Ab|-12----------------12-----------------12-----------------12----13-12-----------|
Db|---0-0-0-0-0-12-13----0-0-0-0-0-12-13----0-0-0-0-0-12-13----0-0-----13-12-13---|
      * * * * * *        * * * * * *        * * * * * *        * *

Eb|---------------------------------------------------------------------------------------|
Bb|---------------------------------------------------------------------------------------|
Gb|---------------------------------------------------------------------------------------|
Db|---------------------------------------------------------------------------------------|
Ab|----------------------12---------------------12----------------------12-15-12----------|
Db|-15-15-15-15-15-13-15---15-15-15-15-15-13-15----15-15-15-15-15-13-15---------12-10-12--|
    *  *  *  *  *  *        *  *  *  *  *  *        *  *  *  *  *  *

Eb|-------------------------------------------------------------------------------|
Bb|-------------------------------------------------------------------------------|
Gb|-------------------------------------------------------------------------------|
Db|-------------------------------------------------------------------------------|
Ab|----------------------12-----------------------12-12-12-12---------------------|
Db|-10-10-10-10-10-10-12----10-10-10-10-10-8-8-8-8------------7-7-7-7-3-3-3-3-----|
       *  *  *  *  *        *  *  *  *  *  * * * *            * * * * * * * *

Eb|-------------------------------------------------------------------------------|
Bb|-------------------------------------------------------------------------------|
Gb|-------------------------------------------------------------------------------|
Db|----------------------------------------------------8----7---------------------|
Ab|----------------------------------------------------8----7---------------------|
Db|----------------------------------------------------8----7---------------------|

[Chorus]
Eb|-------------------------------------------------------------------------------|
Bb|-------------------------------------------------------------------------------|
Gb|-7------9-----10-------------------------5------3------2-----------------------|
Db|-7------9-----10---10--------------------3------1------0-----------------------|
Ab|-5------7-----8----8---------------------3------1------0-----------------------|
Db|-------------------8---------------------3------1------0-----------------------|

Eb|-------------------------------------------------------------------------------|
Bb|-------------------------------------------------------3-----------------------|
Gb|-7------9-----10---------------------------------------2-----------------------|
Db|-7------9-----10---10--------------------3------1------0-----------------------|
Ab|-5------7-----8----8---------------------3------1------0-----------------------|
Db|-------------------8---------------------3------1------0-----------------------|

Eb|----------------------------------------------------------------------------------|
Bb|-----------------------------------------3------1---------------------------------|
Gb|-7------9-----10-------------------------5------3------2--------------------------|
Db|-7------9-----10---10--------------------3------1------0--------------------------|
Ab|-5------7-----8----8---------------------3------1------0--------------------------|
Db|-------------------8---------------------3------1------0--------------------------|

Eb|-------------------------------------------------------------------------------|
Bb|-------------------------------------------------------3-----------------------|
Gb|-7------9-----10---------------------------------------2-----------------------|
Db|-7------9-----10---10--------------------3------1------0-----------------------|
Ab|-5------7-----8----8---------------------3------1------0-----------------------|
Db|-------------------8---------------------3------1------0-----------------------|

[Outro]
Eb|----------------------------------------------------------------------|
Bb|----------------------------------------------------------------------|
Gb|----------------------------------------------------------------------|
Db|----------------------------------------------------------------------|
Ab|----------------------------------------------------------------------|
Db|-0--0--0--0--12b-12b-12b--0--10-10-10--0--0--0--0--6b-6b-6b--0--4-4-4-|

Eb|----------------------------------------------------------------------|
Bb|----------------------------------------------------------------------|
Gb|----------------------------------------------------------------------|
Db|----------------------------------------------------------------------|
Ab|----------------------------------------------------------------------|
Db|-0--0--0--0--12b-12b-12b--0--10-10-10--0--0--0--0--1-1-1-1-1-1-1-1----|
                                                      * * * * * * * *

Eb|----------------------------------------------------------------------|
Bb|----------------------------------------------------------------------|
Gb|----------------------------------------------------------------------|
Db|----------------------------------------------------------------------|
Ab|----------------------------------------------------------------------|
Db|-0--0--0--0--12b-12b-12b--0--10-10-10--0--0--0--0--6b-6b-6b--0--4-4-4-|

Eb|----------------------------------------------------------------------|
Bb|----------------------------------------------------------------------|
Gb|----------------------------------------------------------------------|
Db|----------------------------------------------------------------------|
Ab|----------------------------------------------------------------------|
Db|-0--0--0--0--12b-12b-12b--0--10-10-10--0--0--0--0--1-1-1-1-1-1-1-1----|
                                                      * * * * * * * *

Eb|------------------------------------------------------------------------|
Bb|------------------------------------13b-----------------------------13b-|
Gb|------------------------------------------------------------------------|
Db|------------------------------------------------------------------------|
Ab|------------------------------------------------------------------------|
Db|-0--0--0--0--12b-12b-12b--0--10-10-10--0--0--0--0--6b-6b-6b--0--4-4-4---|

Eb|-----------------------------------------------------------------------|
Bb|------------------------------------13b--------------------------------|
Gb|-----------------------------------------------------------------------|
Db|-----------------------------------------------------------------------|
Ab|-----------------------------------------------------------------------|
Db|-0--0--0--0--12b-12b-12b--0--10-10-10--0--0--0--0--1-1-1-1-1-1-1-1-----|
                                                      * * * * * * * *

Eb|------------------------------------------------------------------------|
Bb|------------------------------------13b-----------------------------13b-|
Gb|------------------------------------------------------------------------|
Db|------------------------------------------------------------------------|
Ab|------------------------------------------------------------------------|
Db|-0--0--0--0--12b-12b-12b--0--10-10-10--0--0--0--0--6b-6b-6b--0--4-4-4---|

Eb|------------------------------------------------------------------------|
Bb|------------------------------------13b---------------------------------|
Gb|------------------------------------------------------------------------|
Db|-------------------------------------------------------------------0----|
Ab|-------------------------------------------------------------------0----|
Db|-0--0--0--0--12b-12b-12b--0--10-10-10--0--0--0--0--1-1-1-1-1-1-1-1-0----|
                                                      * * * * * * * *

Please Rate, Comment, Like the tAb|s and tell me if you have any corrections



************************************

| h   Hammer-on
| p   Pull-off
| r   Release
| b   Bend
| br  Bend release
| /   Slide up
| \   Slide down
| ~   Vibrato
| *   Palm mute

************************************
Suggest correction
comments
print report bad tab
10 comments total. Showing first comments.
+1 reply
mustaine42 60 Nov 08, 2013 09:37 AM

After the first 3 open notes, the next note should be 13 and not 12.

+1 reply
mustaine42 60 Nov 08, 2013 09:38 AM

Edit: First 4 notes.

+1 reply
abhinavbairat 66 Nov 08, 2013 12:41 PM

I'm pretty sure the 12th fret is bent a half step to sound like 13th

guest
You may want to rate the tab now too:
select rating
Wanna post a correction for this tab? Suggest correction