Oops, an error
Loading. Please wait.

All Hope Is Gone Tab

version 1
version 1

Whole song

  • Added a couple corrections to improve it.

Interactive

47,940 views 69 this week
9 commentsread comments
1 2 3 4 5
x 18
add to favorites
launch autoscroll
font size
0
reset
how to read this tab
guitar tuner
Autoscroll
slow
fast
+/-
esc
set tempo
stop
Help us to improve Ultimate-Guitar.com Take our survey!
×
Author
Difficulty
Tuning
intermediate
A# F A# D# G C
About this tab version
Added a couple corrections to improve it. Was this info helpful? Yes No
Alter Bridge - "All hope is Gone"
From the Album "AB III"
tuning - Bb Ab Db Gb Bb Eb
tabbed by jjhand


More heavy riffs from Tremonti's low-tuned axe. I suggest a 0.060 gauge
or so string for the low B to avoid excess slack. Please rate/comment!
Main Riff was updated 2/9/12 using youtube footage of his solo lesson.


Intro/Main Riff - Guitar 1
    Bb                     G/Em               Db             Ab
eb|----------------------|-----------------------|-------------------------|
Bb|----------------------|-----------------------|-------------------------|
Gb|----------------------|-------------0---11h12-|-11--14-11---------------|
Db|----------------------|-----------0--------0--|--0-0-----12p11---12p11--|
Ab|-6---7-9-9b10r9--7-6--|-7----9/10-------------|---------------0-0-----12|
Bb|-0---0-0-0-------0-0--|-8--8------------------|-------------------------|

  BbAdd2
|------------------------|-----------------------|-----------------------|
|------------------------|-----------------------|-----------------------|
|------------------------|-----------------------|-------------0---11h12-|
|-------11-11-11---11----|-----------------------|-----------0--------0--|
|-14----14-14-14---14--0-|-6-----7-9-9b10r9--7-6-|-7----9h10-------------|
|-0--0--------0--0-------|-0-----0-0-0-------0-0-|-8--8------------------|


|----------------------------|---------------------------|
|----------------------------|---------------------------|
|-12---12p11-----------------|---------------------------|
|--0-0------12p11---12p11----|-11--11-11-11-11---11-11---|
|---------------0-0-------12-|-14--14-14-14-14---14-14-0-|
|----------------------------|-0-------------0-----------|


Verse 1 - Main Riff Again

Lyrics:
"A tireless stream of indifference flows
through veins 'till the river runs dry
I no longer care, I have all but disposed
of dreams that I once held inside.

Desire is gone after all of these years
the fight has been lost, I concede.
The apathy born a long time ago
has grown to what I can't defeat"


Before Chorus Riff Change - () notes is Guitar 2

|-------------------------|-------------------------------|
|-------------------------|-------------------------------|
|-------------------------|-------------------------------|
|-11--11-11-11-11---11-11-|-12--12-12-12-12---12--12------|
|-14--14-14-14-14---14-14-|-14--14-14-14-14---14--14-(14\)|
|-0---0--------0--0-------|-0---0--------0--0--------(12\)|



Chorus - play 2x, then go to ending

 Rhythm
|-----------------------|---------------------|-----------------|----------------|
|-----------------------|---------------------|-----------------|----------------|
|-----------------------|---------------------|-----------------|----------------|
|-----------------------|---------------------|-----------------|----------------|
|-10----10--10-10----10-|-9----9--9--9------9-|-5---5---5---5---|-4---4---4---4--|
|-8-----8---8--8-----8--|-7----7--7--7------7-|-3---3---3---3---|-2---2---2---2--|
|
|Lead
|-----------------------|---------------10--10|-----------------|----------------|
|-----------------------|-10--10-10--10-10--10|-----------------|-5---5---5---5--|
|-14--14-14--14-14---14-|-11--11-11--11-------|-9---9---9---9---|-6---6---6---6--|
|-12--12-12--12-12---12-|-12--12-12--12-------|-7---7---7---7---|-7---7---7---7--|
|-10--10-10--10-10---10-|---------------------|-5---5---5---5---|-4---4---4---4--|
|-----------------------|---------------------|-----------------|----------------|

"I've been here too long                    I'm tired and longing for more"
"How long must i run                         To find what I'm looking for?"

Chorus ending (both guitars)
|------------------|------------------|
|------------------|------------------|
|------------------|------------------|
|------------------|------------------|
|-10---------------|-9----------------|  back to Main riff
|-8----------------|-7--------2b5-----|
          "All      hope       is      gone"


Verse 2 (same as before, but add part below):

"The sadness i carry so deep in my heart
for what could have been and might be
is never forgotten, its never too far
I'm wasted so worn and so weak"

Lead Guitar Overdubs for Verse 2 - () is second part

|---0---0---0---0---0---0-|--0-------0----0----|-14--15-14-12--14-12-|
|-16--16--16--16--16--16--|-16b17----b17--b17~~|(15--17-15-14--15-14)|
|-------------------------|--------------------|---------------------|
|-(13~~~~~)---------------|-(14------14---14~~)|---------------------|
|-------------------------|--------------------|---------------------|
|-------------------------|--------------------|---------------------|

Ending 1
|-----17b19r17------|
|-16----------------|
|(16~~~~~~~~~~~~~)--|
|-------------------|
|-------------------|
|-------------------|

Ending 2
|(7---7-0-7-0-7---7-0-7-0)|-(7b9__________)--|
|-16----------------------|-17b19__________--|
|-------------------------|------------------|
|-------------------------|------------------|
|-------------------------|------------------|
|-------------------------|------------------|


Play Chorus Again

Bridge

(2:13) - Guitar 1 with echo
|-------12---------12---|----------|-------11---------11---|-------------|
|---10---------10-------|----------|---10---------10-------|-------------|
|-12--12-----12--12-----|-rest-----|-11--11-----11--11-----|-rest--------|
|-----------------------|----------|-----------------------|-------------|
|-----------------------|----------|-----------------------|-------------|
|-----------------------|----------|-----------------------|-------------|

(2:30) - Play this part 2x

  Guitar 1 with echo (play each bar 2x)
|-------12----------12-------||-------11----------11-------||
|---10------10--10------10---||---10------10--10------10---||
|-12--12--12--12--12--12-----||-11--11--11--11--11--11-----||
|----------------------------||----------------------------||
|----------------------------||----------------------------||
|----------------------------||----------------------------||
|
| Guitar 2
|-------------------------|---------|-------------------------|---------|
|-------------------------|---------|-------------------------|---------|
|-------------PM***-------|-rest----|-------------------------|-rest----|
|-------------------------|---------|-------------------------|---------|
|-5-3-2-------------3---3-|---------|-5-3-2-------------2---2-|---------|
|-------0---0-0-1-0-1---1-|---------|-------0---0-0-1-0-0---0-|---------|


(2:48) Bridge Pt. 2 - play 4x
|------------------------|------------------------|
|------------------------|------------------------|
|------------PM***-5---5-|-------4-4--9\5-5-5-5-5-|
|------------------------|------------------------|
|-5-3-2------------3---3-|-------2-2--7\3-3-3-3-3-|
|-------0----0-1-0-------|-0-0-0------------------|

Solo - (Rhythm Guitar plays Main Riff throughout)
|---------------------------|-/10---7----------|---------------------------|
|-10------------------------|-/12--------------|------------------PH-PH----|
|-9b11--9b11r9p7--7h9~------|----------7-------|-7-9-9b11r-7-------7-6---9-|
|---------------9-----------|------------9~----|-------------7---7-----7---|
|---------------------------|------------------|---------------9-----------|
|---------------------------|------------------|-------------PM***---------|

|--------------------------|-------------------|---------0-------0------|
|-------0-7-10p7-----------|-----------0---0---|-3-3-----5--------------|
|-8~-------------8---------|-2---------4---4---|-0-----0----------------|
|------------------9p7---7\|-------------4---4-|-5----/7-----/12---11---|
|----------------------9---|----2b3r2----------|------------------------|
|--------------------------|-------------------|------------------------|

|-/7p5----10__p7-----12__p10-----14_p12-----|-/19~~~17-19-19b22-----|
|------7p5------10p7--------12p10-----14p12-|-----------------------|
|-------------------------------------------|-----------------------|
|-------------------------------------------|-----------------------|
|-------------------------------------------|-----------------------|
|-------------------------------------------|-----------------------|

|-19b22--19b22--19~~~----------|-12-11b12r-------------------|---------------|
|------------------------------|----------12-10\7------------|---------------|
|------------------------------|------------------9-8--------|---------------|
|------------------------------|-----------------------9-7---|---------------|
|------------------------------|---------------------------9-|-10~~----------|
|------------------------------|-----------------------------|---------------|

Play Chorus Again with Lead guitar playing-
|-------------------0--|--------------------|-------------0-|------------------|
|-------------3-----5--|------------3-----5-|---------3-----|--------2h3p2-----|
|-------4-------0-0----|------0-------0-----|-----2---------|--------------4-2-|
|-5-5-5---5-5----------|-4--4---4-4-----4---|-0-------------|-----2------------|
|----------------------|--------------------|---------------|-4----------------|
|----------------------|--------------------|---------------|------------------|

|-------------------0--|--------------------|-------------0-|-----------------|
|-------------3-----5--|------------3-----5-|---------3-----|---------2-------|
|-------4-------0-0----|------0-------0-----|-----2---------|-------------4---|
|-5-5-5---5-5----------|-4--4---4-4-----4---|-0-------------|-----2-----------|
|----------------------|--------------------|---------------|-4---------------|
|----------------------|--------------------|---------------|-----------------|

|----------------10----12-|------------------10----12-|---------12------12----|
|---------12-------10-----|--------------------10-----|------15------15----15-|
|-12-12-12--12-12----12---|-11-12-11-11-11-11----11---|---14------------------|
|-------------------------|---------------------------|-0----------0----------|
|-------------------------|---------------------------|-----------------------|
|-------------------------|---------------------------|-----------------------|

|----------9tr10-----|----------------10----12|--------------14-----------------|
|-------10------12-10|------------------10----|-------10-------15p14-14-14h15p0-|
|----10--------------|-12-12-12--12-12----12--|-11--11--11-11-------------------|
|-11-----------------|------------------------|---------------------------------|
|--------------------|------------------------|---------------------------------|
|--------------------|------------------------|---------------------------------|


Play Bridge Part 2  4x, same as before

Ending - Bridge Part from 2:13 in song, Guitar 1 plays until fade out

KEY
************************************

| /   slide up
| \   slide down
| h   hammer-on
| p   pull-off
| tr  trill (hammer on & pull off briefly)
| ~   vibrato
| PH  pinch harmonic
| x   Mute note
| b   Bend
| r   Bend release
| ()  Note from second guitar
************************************
Suggest correction
comments
print report bad tab
9 comments total. Showing first comments.
+2 reply
bknife 10 Nov 01, 2010 12:42 AM

thanks for this

0 reply
robbo1990 31 Jan 07, 2012 05:16 PM

spot on man! well done!

-1 reply
slash.r0cks 4,810 Jan 18, 2012 12:13 AM

Really great tab dude, hope you don't mind, but I'll be using part of this for my tab. 5*

guest
You may want to rate the tab now too:
select rating
Wanna post a correction for this tab? Suggest correction