Oops, an error
Loading. Please wait.

Blackbird Tab

version 2
version 2
7,539 views 6 this week
1 commentread comment
1 2 3 4 5
please rate
add to favorites
launch autoscroll
font size
0
reset
how to read this tab
guitar tuner
Tab Pro tools
  • play this tab
  • loop segment
  • change instrument
  • show fretboard
  • metronome
×
Best way to learn
"Blackbird"
Autoscroll
slow
fast
+/-
esc
set tempo
stop
Contributor
Tabbed By Ruben. My email is metalingus1991@yahoo.com

Band - Alter Bridge
Album - Blackbird
Mark Tremonti Solo
Standard Tuning - Down 1/2 Step Eb Bb Gb Db Ab Eb
Key Legend
b-bend
v-vibrato
h-hammer on
p-off
x-mute
s-slide


This is the tab for Alter Bridge's song "Blackbird". I got this solo from the 
dvd by Mark Tremonti. It's completely accurate. There could 1 or 2 slips in there. 
Thank you. 1 more thing. Here is the link to see this solo in action.

http://www.youtube.com/watch?v=kqdZxKzIP3w


Part 1
Eb|-15-17-17b-17b-15-18----17v-15h17p15----------|
Bb|-x--x--x---x---------15-x------------15-18-15-|
Gb|-x--x--x---x------------x---------------------|
Db|----x--x---x------------x---------------------|
Ab|----------------------------------------------|
Eb|----------------------------------------------|


Eb|-----------------------------------------------|
Bb|-18b-------------------------------------------|
Gb|-15b-14b---12-14-14b-14b-----------------------|
Db|---------------------------14s10--10-8----8h10-|
Ab|----------------------------------------10-----|
Eb|-----------------------------------------------|


Eb|---------------------|
Bb|-----------------15s-|
Gb|-----------------12s-|
Db|-10p8----8bs10b------|
Ab|------10-------------|
Eb|---------------------|


Part 2
Eb|-----18-15-18-15----------------------------------|
Bb|-18b-----------------------------18---------------|
Gb|-----------------17S18S17-15---------17B15-17B15B-|
Db|-----------------------------17-------------------|
Ab|--------------------------------------------------|
Eb|--------------------------------------------------|


Eb|-3h5h6---------------------------------|
Bb|-------3h4h6---------------------------|
Gb|-------------2h3h5p3p2h3-3-5-3b-2-3-2b-|
Db|---------------------------------------|
Ab|---------------------------------------|
Eb|---------------------------------------|


Eb|---------------|
Bb|-----------17b-|
Gb|-15-17-15b-----|
Db|---------------|
Ab|---------------|
Eb|---------------|


Part 3
Eb|--------------15-------------------17--------|
Bb|-------s18-18----18v--------s18-18----18b-15-|
Gb|-14-15----------------14-15------------------|
Db|---------------------------------------------|
Ab|---------------------------------------------|
Eb|---------------------------------------------|


Eb|-----18-----18-----|
Bb|-18b----18b----18v-|
Gb|-------------------|
Db|-------------------|
Ab|-------------------|
Eb|-------------------|

      3 Times
Eb|-17b-15-------|-18b-15-------18b-18b-|
Bb|--------18-15-|--------18-15---------|
Gb|--------------|----------------------|
Db|--------------|----------------------|
Ab|--------------|----------------------|
Eb|--------------|----------------------|


Part 4 Tremolo Picking Pattern
Eb|-15-15151515-20-15151515-18-15151515-17-15151515-|
Bb|-------------------------------------------------|
Gb|-------------------------------------------------|
Db|-------------------------------------------------|
Ab|-------------------------------------------------|
Eb|-------------------------------------------------|


Eb|-18-15151515-20-15151515-17-15151515-18-15151515-|
Bb|-------------------------------------------------|
Gb|-------------------------------------------------|
Db|-------------------------------------------------|
Ab|-------------------------------------------------|
Eb|-------------------------------------------------|


Eb|-20-15151515----15151515-17-15151515----15151515-|
Bg|-------------18----------------------18----------|
Gb|-------------------------------------------------|
Db|-------------------------------------------------|
Ab|-------------------------------------------------|
Eb|-------------------------------------------------|


Eb|-18-15151515----15151515-|
Bb|-------------18----------|
Gb|-------------------------|
Db|-------------------------|
Ab|-------------------------|
Eb|-------------------------|


Eb|-15-17-18-17-15-------------------------------|
Bb|----------------15-16-18-16-15----------------|
Gb|-------------------------------15-16-18-16-15-|
Db|----------------------------------------------|
Ab|----------------------------------------------|
Eb|----------------------------------------------|


Eb|-----------------------------------|
Bb|-----------------------------------|
Gb|-14-15-17--14h15p14----14-15-15-17-|
Db|--------------------17-------------|
Ab|-----------------------------------|
Eb|-----------------------------------|


Eb|-x-|
Bb|-x-|
Gb|-x-|
Db|-8-|
Ab|-6-|
Eb|-0-|

Let me know if you guitarist like or not.

Keep Rockin
comments
We did not receive enough feedback on this tab! Please rate:
print report bad tab
1 2 3 4 5
1 comment total.
0 reply
Dimonaft wrote on September 5 2010, 06:23 am

This solo isn't right(

I want to post or [tab]
guest
You may want to rate the tab now too:
select rating
Please do not post tabs as comments. Select "correction" instead!