Oops, an error
Loading. Please wait.

Blackbird Tab

version 3
version 3
3,126 views 60 this week
no commentswrite comment
1 2 3 4 5
excellent!
x 1
add to favorites
launch autoscroll
font size
0
reset
how to read this tab
guitar tuner
Tab Pro tools
  • play this tab
  • loop segment
  • change instrument
  • show fretboard
  • metronome
×
Best way to learn
"Blackbird"
Autoscroll
slow
fast
+/-
esc
set tempo
stop
Contributor
Difficulty
Tuning
advanced
D# G# C# F# A# D#
Solo correct, this is what Myles and Mark teached on Mark's The Sound And The Story...

Myles Solo for 'Blackbird'
DO LOTS OF VIBRATOS!
                        
|-----------------------------------|
|-----------------------------------|
|--------------3-3-5-5--5b8r5-------|
|-/5~~-----------------------1~~----|
|-----------------------------------|
|-----------------------------------|

|-----------------------------------------------|
|-----------------6h8~--------------------------|
|----3--5p3---5/7~-----7\5~----5\3-5-5b7r5p3----|
|-/5------------------------------------------5~|
|-----------------------------------------------|
|-----------------------------------------------|

|-10-----------------------------------------|
|-11b----------------------------------------|
|------12-10-12-10---------------------------|
|-------------------12\10-8-10/12\10-8-10-8~-|
|--------------------------------------------|
|--------------------------------------------|

|--------------------------------------------------------|
|--------------------------------15----15---14--13--15b~~|
|------------12--10--12--10/12-12---12-------------------|
|-----12-------------------------------------------------|
|-/10----10----------------------------------------------|
|--------------------------------------------------------|

|--------18-18-20-18-20b22r20----18------20b22r20b22~-|
|-/20-20----------------------------20~~--------------|
|-----------------------------------------------------|
|-----------------------------------------------------|
|-----------------------------------------------------|
|-----------------------------------------------------|

|-------------------------------------------18h20-18h20-20b22r20p18-18~~\-|
|--19~-19h20-20b22b22b22r20~-20b23b23b23r20~------------------------------|
|-------------------------------------------------------------------------|
|-------------------------------------------------------------------------|
|-------------------------------------------------------------------------|
|-------------------------------------------------------------------------|



Mark Solo for 'Blackbird' (I used this version from another tab and corrected it)
Tricky Solo,watch carefully for tremolo picking

Eb--15-17-|-17b~--17b18r17-15------|-17~~-15h17p15--15-----------|----------------------------|
Bb--------|------------------18-15-|--------------18--18-15-18---|----------------------------|
Gb--------|------------------------|------------------------17b19|-14*-12--14-b15r-b15r--12---|
Db--------|------------------------|-----------------------------|-------------------------14\|
Ab--------|------------------------|-----------------------------|----------------------------|
Eb--------|------------------------|-----------------------------|----------------------------|

Eb---------------------------15-|------15-18p15-18p15---------------------------------|
Bb---------------------------15-|-18b^--------------------------------18--------------|
Gb------------------------------|---------------------17/18-18-17-15----17b-15-17~-15-|
Db-\10--8--8-10b11r-8--8/10-----|-----------------------------------17----------------|
Ab-------10----------10---------|-----------------------------------------------------|
Eb------------------------------|-----------------------------------------------------|

                   w/ wah_______________________
Eb-----3-3h5h6p5p3-------------------------------------------|
Bb-----------------6p4p3h4h6p4p3-----------------------------|
Gb-------------------------------5p3p2h3h5p3p2h3-5p3~-2h3p2~-|
Db-----------------------------------------------------------|
Ab-----------------------------------------------------------|
Eb-----------------------------------------------------------|

Eb--------------------|----------------15------------------|--------------18-----------|
Bb-------------18-----|--------/18--18----18~~----(18~)\2--|-------/18-18---18~-15x----|
Gb--15h17p15~--17b19r-|-14-15------------------------------|-14-15---------------------|
Db--------------------|------------------------------------|---------------------------|
Ab--------------------|------------------------------------|---------------------------|
Eb--------------------|------------------------------------|---------------------------|

                            Play 4x                                       TP
Eb-------18-----18--------|--17b19r17-15------|--18b20-18-15-------18b20-18b20---|
Bb--18b20--18b20---18b20~-|-------------18-15-|--------------18-15---------------|
Gb------------------------|-------------------|----------------------------------|
Db------------------------|-------------------|----------------------------------|
Ab------------------------|-------------------|----------------------------------|
Eb------------------------|-------------------|----------------------------------|

    * Play 2x                         *
Eb--20-15-15-18-15-15-17-15-15-18-15-15- -20-15-15----15-15-18-15-15---15-15-17-15-15--15-15-|
Bb-------------------------------------- ----------18---------------18---------------18------|
Gb-------------------------------------- ----------------------------------------------------|
Db-------------------------------------- ----------------------------------------------------|
Ab-------------------------------------- ----------------------------------------------------|
Eb-------------------------------------- ----------------------------------------------------|


Eb----15-17-18-17-15---------------------------------------------------------------------|-----|
Bb-------------------18-16-15-16-18-16-15------------------------------------------------|-----|
Gb----------------------------------------17-15-14-15-17-15-14-15--15-14h15p14--14-15-17-|-----|
Db----------------------------------------------------------------------------17---------|--8--|
Ab---------------------------------------------------------------------------------------|--6--|
Eb---------------------------------------------------------------------------------------|--6--|
comments
We did not receive enough feedback on this tab! Please rate:
print report bad tab
1 2 3 4 5
I want to post or [tab]
guest
You may want to rate the tab now too:
select rating
Please do not post tabs as comments. Select "correction" instead!