Oops, an error
Loading. Please wait.

Blackbird Bass Tab

version 3
version 3
930 views 1 this week
no commentswrite comment
1 2 3 4 5
please rate
add to favorites
launch autoscroll
font size
0
reset
guitar tuner
Tab Pro tools
  • play this tab
  • loop segment
  • change instrument
  • show fretboard
  • metronome
×
Best way to learn
"Blackbird"
Autoscroll
slow
fast
+/-
esc
set tempo
stop
Contributor
Alter Bridge, Blackbird


Bass Enters when the clean guitars are about to change to a heavy riff 
(0:51)
G|-----|--------|
D|-----|--------|
A|-----|--------|
E|0----|-5--4---|

Heavy Riff 
G|-------|--------|--------|-------------|
D|-------|--------|--------|-------------|
A|-------|--------|--------|-------------|
E|2---4--|-1---4--|-0---4--|--5-5-4-4----|x2

Chorus
G|------------|-------------|--------------|-------------|---------|---------|
D|------------|-------------|--------------|-------------|---------|---------|
A|-5--5--5--5-|-4--4--4-4-4-|----------2---|-6-6-6--6--6-|-5-5-5-5-|-4-------|
E|------------|-------------|-0-0-0--0---0-|-------------|---------|-----9\--|

Intro riff
G|------------|-------------|--------------|--------------------|
D|------------|-------------|--------------|--------------------|
A|--------4---|----(3)------|--------------|--------------------|
E|-2-----2-2--|-1-----------|-0---0-2-3-4--|-5--5-7-5--4--4-5-4-|

G|------------|-------------|--------------|--------------------|
D|------------|-------------|--------------|--------------------|
A|------/9----|----3--3-3---|------2-------|--------------------|
E|-2----------|-1-----------|-0------2-4---|-5--5-7-5--4--4-5-4-|

Verse 2
G|------------|-------------|--------------|--------------------|
D|------------|-------------|--------------|--------------------|
A|------------|----(3)------|--------------|--------------------|
E|-2--2-4-5-4-|-1-----------|-0---0-2-3-4--|-5--5-7-5--4--4-5-4-|

G|------------|-------------|--------------|--------------------|
D|------------|-------------|--------------|--------------------|
A|------4-----|----(3)------|-------2------|--------------------|
E|-2----------|-1-----------|-0---0---2-4--|-5--5-7-5--4--4-5-4-|

Prechorus
G|-------|--------|--------|-------------|
D|-------|--------|--------|-------------|
A|-------|--------|--------|-------------|
E|2---4--|-1---4--|-0---4--|--5-5-4-4----|x2

Chorus
G|------------|-------------|--------------|-------------|---------|---------|
D|------------|-------------|--------------|-------------|---------|---------|
A|-5--5--5--5-|-4--4--4-4-4-|----------2---|-6-6-6--6--6-|-5-5-5-5-|-4-4-4-4-|
E|------------|-------------|-0-0-0--0---0-|-------------|---------|---------|

G|------------|-------------|--------------|-------------|--------------|--------------|
D|------------|-------------|--------------|-------------|--------------|--------------|
A|------------|-------------|-5--5--5--5---|-4--4--4-4-4-|----------2---|-6-6-6--6--6--|
E|-2--2--4--4-|-5--5--7--7--|--------------|-------------|-0-0-0--0---0-|--------------|

G|--------------|-------------|
D|--------------|-------------|
A|-5--5-5--5--5-|-------------|
E|--------------|-5-5-5-5-5-5-|

Low riff
G|-------|-------------|--------|-------------|
D|-------|-------------|--------|-------------|
A|-4-----|-5-4--5-4-2--|-4------|-4-5-------5-|
E|-------|-------------|--------|-----1-2-1---|

G|-------|-------------|--------|--------------|
D|-------|-------------|--------|--------------|
A|-4-----|-5-4--5-4-2--|-4------|-4-5----------|
E|-------|-------------|--------|-----1-4-5-/7-|

Guitar interlude (3:22)
G|-------|--------|--------|---------|
D|-------|--------|--------|---------|
A|-------|--------|-5------|-(5)-----|
E|-2-----|-(2)----|--------|---------|

G|-------|-----------|--------|----------|
D|-------|-----------|--------|----------|
A|-------|-----------|--------|-9-----\0-|
E|-5-----|-4-----5-4-|-2----/9|----------|

G|-------|--------|--------|---------|
D|-------|--------|--------|---------|
A|-------|--------|-5------|-5-5-----|
E|-2-----|-2------|--------|---------|

G|-----------|-----------|--------|-11-9-------------------------|
D|-----------|-----------|--------|-----11-10-9------------------|
A|-----------|-----------|--------|------------11-12-11-9-7-9-11-|
E|-5-----4-5-|-4-----5-4-|-2------|------------------------------|

Vocals begin again (3:59)
G|-----------|---------------|-------------|---------------|
D|-----------|---------------|-------------|---------------|
A|-----------|---------------|--5-5-5-5-5--|-5-5-5-5-5-5---|
E|-2------2--|-2------2-4-5\-|-------------|---------------|

G|----------|-----------|------|-------------|
D|----------|-----------|------|-------------|
A|----------|-----------|------|-------------|
E|-5------5-|-4-----5-4-|-2----|-2----5--5-4-|

G|------------|---------------|-------------|---------------|
D|-------4----|---------------|-------------|---------------|
A|------------|---------------|--------5----|---5-----------|
E|-2--2-2---2-|-2------2-5-5\-|-------------|---------------|

G|------------|------------|--------------|----------------------|
D|------------|------------|--------------|----------------------|
A|------------|------------|--------------|----------------------|
E|-5--5--5--5-|-4--4--4--4-|-2--2--2--2-2-|-2-/5-5-4-4-4/7-7-5-4-|

Myles' Solo
G|------------|----------------|-------------|---------------|
D|------------|----------------|-------------|---------------|
A|------------|----------------|--------5----|---------------|
E|-2--------2-|-2------2/5-4-2-|-0-----------|--0-----0--0---|

G|----------|-----------|------|-------------|
D|----------|-----------|------|-------------|
A|----------|-----------|------|-------------|
E|-5------5-|-4-----5-4-|-2----|-2----5--4-/7|

G|------------|---------------|-------------|---------------|
D|-------4----|---------------|-------------|---------------|
A|------------|---------------|--------5----|---------------|
E|-2--2-2---2-|-2------2-5-5\-|-0---------0-|--0--0--0--0---|

G|------------|------------|--------------|----------------------|
D|------------|------------|--------------|----------------------|
A|------------|------------|--------------|----------------------|
E|-5--5--5--5-|-4--4--4--4-|-2--2--2--2-2-|-/3-4-4-4-4/5-4-4-2---|

(5:15) Mark Tremonti's Solo & Last Verse - Play this part 3x
G|------------|-------------|--------------|-------------|---------|------------|
D|------------|-------------|--------------|-------------|---------|------------|
A|-5--5--5--5-|-4--4--4-4-4-|----------2---|-6-6-6--6--6-|-5-5-5-5-|-4--4--4--4-|
E|------------|-------------|-0-0-0--0---0-|-------------|---------|------------|

G|------------|-------------|
D|------------|-------------|
A|------------|-------------|
E|-2--2--4--4-|-5--5--7--7--|

Continued at 6:14
G|------------|-------------|--------------|-------------|---------|------------|
D|------------|-------------|--------------|-------------|---------|------------|
A|-5--5--5--5-|-4--4--4-4-4-|----------2---|-6-6-6--6--6-|-5-------|-4----------|
E|------------|-------------|-0-0-0--0---0-|-------------|---------|------------|

Outro
G|-------|--------|--------|-------------|
D|-------|--------|--------|-------------|
A|-------|--------|--------|-------------|
E|2---4--|-1---4--|-0---4--|--5-5-4-4----|x4

(7:08) Hold this note till fade out
G|-------|
D|-------|
A|-------|
E|2------|
comments
We did not receive enough feedback on this tab! Please rate:
print report bad tab
1 2 3 4 5
I want to post or [tab]
guest
You may want to rate the tab now too:
select rating
Please do not post tabs as comments. Select "correction" instead!