Oops, an error
Loading. Please wait.

Brand New Start Tab

version 1
version 1

Whole song

Interactive

76,873 views 78 this week
11 commentsread comments
1 2 3 4 5
x 27
add to favorites
launch autoscroll
font size
0
reset
how to read this tab
guitar tuner
Autoscroll
slow
fast
+/-
esc
set tempo
stop
Help us to improve Ultimate-Guitar.com Take our survey!
×
Author
Tuning
D# G# C# F# A# D#
Alter Bridge - Brand New Start
mark-tremonti.com and alterbridgeband.net
[http://abbforums.net/forums]
Tabbed by:reuben   
Email:rubes_intheleast88@hotmail.com
Tuning:D#G#C#F#A#D#(standard down half a step)

Enjoy

_____
Intro|
_____|

  Gtr2 slight dist
    w/ fingers   fade in<<<<<<<<<<<<<<<<<<<<<<<<<<<<<<<<>>>>
D#|*12--------------------------------------------------------------|
A#|-----------------------------------------------------------------|
F#|*12--------------------------------------------------------------|
C#|-----------------------------------------------------------------|
G#|-----------------------------------------------------------------|
D#|*12--------------------------------------------------------------|

  Gtr1 clean w/ fingers   (let ring)
D#|-------------------------------------------------------0---------|
A#|-----------------------------------------------------------0-----|
F#|---------------0-------------------------------0-------------0---|
C#|---------12------------------------------12--------12----------0-|
G#|-----10----10------------------------10----10--------------------|
D#|-0-----0-----0---------------0-10-9----9-----9-------9-----------|

  Gtr1
D#|-----------------------------------------------------------0-----|
A#|-------------------------------------------------------------0---|
F#|-----------------------------------------------0---------------0-|
C#|---------------0---------------0---------4p0-------4-------------|
G#|-----0---3p2---------0---3p2---------2---------------5-----------|
D#|-3-----3-----3---2-----2-----2---0-----0-----0-----------0-------|

________
preverse|
________|

  Gtr1 
D#|-------------------------------------------------------0---------|
A#|-----------------------------------------------------------0-----|
F#|---------------0-------------------------------0-------------0---|
C#|---------12------------------------------12--------12----------0-|
G#|-----10----10------------------------10----10--------------------|
D#|-0-----0-----0---------------0-10-9----9-----9-------9-----------|

  Gtr2 (slight dist)  w/ phaser
D#|-15------------------------------15------------------------------|
A#|-17------------------------------17------------------------------|
F#|-19------------------------------18------------------------------|
C#|-----------------------------------------------------------------|
G#|-----------------------------------------------------------------|
D#|-----------------------------------------------------------------|

  Gtr1
D#|-----------------------------------------------------------------|
A#|-----------------------------------------------------------0-----|
F#|-----------------------------------------------0-------------0---|
C#|---------------0---------------0---------4p0-------4-----------4-|
G#|-----0---3p2---------0---3p2---------2---------------5-----------|
D#|-3-----3-----3---2-----2-----2---0-----0-----0-----------0-------|

  Gtr2
D#|-----------------------------------------------------------------|
A#|----------------*12----------------------------------------------|
F#|*12--------------------------------------------------------------|
C#|-----------------------------------------------------------------|
G#|-----------------------------------------------------------------|
D#|--------------------------------*12------------------------------|

  _______
  Verse 1|
  _______|
                "Against the sky                   streams of light
  Gtr1   (basically same as intro, slight differences)
D#|-------------------------------------------------------0---------|
A#|-----------------------------------------------------------0-----|
F#|---------------0-------------------------------0-------------0---|
C#|---------12------------------------------12--------12----------0-|
G#|-----10----10------------------------10----10--------------------|
D#|-0-----0-----0---------------0-10-9----9-----9-------9-----------|

          call out to me      and you"
  Gtr1
D#|-----------------------------------------------------------0-----|
A#|-------------------------------------------------------------0---|
F#|-----------------------------------------------0---------------0-|
C#|---------------0---------------0---------4p0-------4-------------|
G#|-----0---3p2---------0---3p2---------2---------------5-----------|
D#|-3-----3-----3---2-----2-----2---0-----0-----0-----------0-------|

                "We leave as one               we've just begun
  Gtr1   
D#|-------------------------------------------------------0---------|
A#|-----------------------------------------------------------0-----|
F#|---------------0-------------------------------0-------------0---|
C#|---------12------------------------------12--------12----------0-|
G#|-----10----10------------------------10----10--------------------|
D#|-0-----0-----0---------------0-10-9----9-----9-------9-----------|

          To find the solace we're due"  
  Gtr1
D#|-----------------------------------------------------------------|
A#|-----------------------------------------------------------------|
F#|-----------------------------------------------0-----------0-----|
C#|---------------0---------------0---------4p0-------4---------4---|
G#|-----0---3p2---------0---3p2---------2---------------5---------2-|
D#|-3-----3-----3---2-----2-----2---0-----0-----0-----------0-------|

         "This is the life we must choose"                     "We will
  Gtr1
D#|---------------------------------------------------------------0-|
A#|---------------------------------------------------------0-------|
F#|-----------------------------------------------0-----------------|
C#|---------------0---------------0---------4p0-------4-------------|
G#|-----0---3p2---------0---3p2---------2---------------5-----------|
D#|-3-----3-----3---2-----2-----2---0-----0-----0-------------------|

  Gtr2(dist)
D#|-----------------------------------------------------------------|
A#|-----------------------------------------------------------------|
F#|-----------------------------------------------------------------|
C#|-----------------------------------------------------------------|
G#|-----------------------------------------------------------------|
D#|----------------------------------------------------------/16\\\-|

  _______
  Chorus1|
  _______|
     make  a brand new start  From the pieces    torn apart, the break of
  Gtr1&2 (dist)
D#|-----------------------------------------------------------------|
A#|-----------------------------------------------------------------|
F#|-5-------5-----5-5-4-4-----4-4-4-7-----7-7-----7-7-6-6-----6-6-6-|
C#|-5-------5-----5-5-5-5-----5-5-5-7-----7-7-----7-7-7-7-----7-7-7-|
G#|-3-------3-----3-3-5-5-----5-5-5-5-----5-5-----5-5-7-7-----7-7-7-|
D#|-3-------3-----3-3-3-3-----3-3-3-5-----5-5-----5-5-5-5-----5-5-5-|

   day       is before        us":                 "Cast your sor-
  Gtr1&2
D#|---------------------------------------------------------|
A#|---------------------------------0-----------------------|
F#|-4-----4-4-4-----5-----5-0-------0-----0-----------------|
C#|-5-----5-5-5-2-2-5-----5-4-------4-----4---------5-------|
G#|-5-----5-5-5-2-2-3-----3-2-------2-----------5-----7~~~~~|
D#|-3-----3-3-3-0-0-3-----3-0-------0------/7-----7---------|

    rows    to  the wind       let the highway take us in      as we 
  Gtr1&2
D#|-----------------------------------------------------------------|
A#|-----------------------------------------------------------------|
F#|-5-------5-----5-5-4-4-----4-4-4-7-----7-7-----7-7-6-6-----5-5-5-|
C#|-5-------5-----5-5-5-5-----5-5-5-7-----7-7-----7-7-7-7-----6-6-6-|
G#|-3-------3-----3-3-5-5-----5-5-5-5-----5-5-----5-5-7-7-----6-6-6-|
D#|-3-------3-----3-3-3-3-----3-3-3-5-----5-5-----5-5-5-5-----4-4-4-|

    escape     the   disorder"
  Gtr1&2
D#|-------------------------0-------------------------------|
A#|-------------------------0-------------------------------|
F#|-4-----4-4-4-----5-------0-------------------------------|
C#|-5-----5-5-5-2-2-5-------4-------------------------------|
G#|-5-----5-5-5-2-2-3-------2-------------------------------|
D#|-3-----3-3-3-0-0-3-------0-------------------------------|

  ________
  preverse|
  ________|
  Gtr1 (clean)
D#|-------------------------------------------------------0---------|
A#|-----------------------------------------------------------0-----|
F#|---------------0-------------------------------0-------------0---|
C#|---------12------------------------------12--------12----------0-|
G#|-----10----10------------------------10----10--------------------|
D#|-0-----0-----0---------------1210-9----9-----9-------9-----------|

  Gtr2 (slight dist)
D#|*12--------------------------------------------------------------|
A#|------------------------*12------12b14~~~~~~~~~~~~~~~~~~~~~~~~~--|
F#|-----------------------------------------------------------------|
C#|-----------------------------------------------------------------|
G#|-----------------------------------------------------------------|
D#|-----------------------------------------------------------------|

  Gtr1 
D#|-----------------------------------------------------------------|
A#|-----------------------------------------------------------0-----|
F#|-----------------------------------------------0-------------0---|
C#|---------------0---------------0---------4p0-------4-----------4-|
G#|-----0---3p2---------0---3p2---------2---------------5-----------|
D#|-3-----3-----3---2-----2-----2---0-----0-----0-----------0-------|

  Gtr2
D#|--------------------------------*12------------------------------|
A#|----------------*12----------------------------------------------|
F#|*12--------------------------------------------------------------|
C#|-----------------------------------------------------------------|
G#|-----------------------------------------------------------------|
D#|--------------------------------*12------------------------------|

______
Verse2|
______|

This desert road,
That we call home
This is our destiny
We'll chase the setting sun,
as we outrun
A life of agony
God how we ache to be free

  __________
  2nd Chorus|
  __________|
  Gtr1&2
D#|-----------------------------------------------------------------|
A#|-----------------------------------------------------------------|
F#|-5-------5-----5-5-4-4-----4-4-4-7-----7-7-----7-7-6-6-----6-6-6-|
C#|-5-------5-----5-5-5-5-----5-5-5-7-----7-7-----7-7-7-7-----7-7-7-|
G#|-3-------3-----3-3-5-5-----5-5-5-5-----5-5-----5-5-7-7-----7-7-7-|
D#|-3-------3-----3-3-3-3-----3-3-3-5-----5-5-----5-5-5-5-----5-5-5-|

  Gtr1&2
D#|--------------------------------------------------------------------|
A#|---------------------------------0----------------------------------|
F#|-4-----4-4-4-----5-------0-------0----------------------------------|
C#|-5-----5-5-5-2-2-5-------4-------4----------------------------------|
G#|-5-----5-5-5-2-2-3-------2-------2------13pb12--10--10-12b13b12p10--|
D#|-3-----3-3-3-0-0-3-------0-------0----------------12--------------12|

  Gtr1&2
D#|-----------------------------------------------------------------|
A#|-----------------------------------------------------------------|
F#|-5-------5-----5-5-4-4-----4-4-4-7-----7-7-----7-7-6-6-----5-5-5-|
C#|-5-------5-----5-5-5-5-----5-5-5-7-----7-7-----7-7-7-7-----6-6-6-|
G#|-3-------3-----3-3-5-5-----5-5-5-5-----5-5-----5-5-7-7-----6-6-6-|
D#|-3-------3-----3-3-3-3-----3-3-3-5-----5-5-----5-5-5-5-----4-4-4-|

  Gtr1&2
D#|-------------------------0-------------------------------|
A#|-------------------------0-------------------------------|
F#|-4-----4-4-4-----5-------0-------------------------------|
C#|-5-----5-5-5-2-2-5-------4-------------------------------|
G#|-5-----5-5-5-2-2-3-------2-------------------------------|
D#|-3-----3-3-3-0-0-3-------0-------------------------------|

____
Solo|
____|
  Gtr1
D#|----------------------------------------------------------------------|
A#|----------------------------------------------------------------------|
F#|--11h12-11--11~~11h12-11--11~~12x---11h12-11--11h12-11----------------|
C#|----------14------------14------------------14--------12~~~~~~~~~~14--|
G#|--------------------------------------------------------------------10|
D#|----------------------------------------------------------------------|

  Gtr2
D#|---------------------------------0-------------------------------|
A#|---------------------------------5-------------------------------|
F#|(4)------------------------------6-------------------------------|
C#|(2)------------------------------7-------------------------------|
G#|(2)------------------------------4-------------------------------|
D#|(0)--------------------------------------------------------------|

  Gtr1                                     (vol swell)        P.S
D#|-----------------------------------------------------------------|
A#|-----------------------------------------------------------------|
F#|-----------------------------------------------------------------|
C#|--------------------------12h16-12-------------------------------|
G#|(10)~~~~~-12h14-12~~~~~~~-----------14~~~~~~~~~~~~~~-----x\\\\\--|
D#|--------12--------------14-------------0-----------------x\\\\\\-|

  Gtr2                                     Vol swell<<<<<<<<
D#|-----------------------------------------------------------------|
A#|-3-----------------------------------5---------------------------|
F#|-0--------------2--------------------4---------------------------|
C#|-0--------------4--------------------2---------------------------|
G#|-x--------------5--------------------2---------------------------|
D#|-3--------------2----------------0-------------------------------|

  Gtr1 (w/ wah)
D#|-x10/12----------------------------------------------------------|
A#|-------12\10/15~~\12\10-x-----15b17~~~~~~~15-pb17-15-pb19b15-----|
F#|--------------------------------------------------------------12x|
C#|-----------------------------------------------------------------|
G#|-----------------------------------------------------------------|
D#|-----------------------------------------------------------------|

  Gtr2
D#|-0-------------------------------0-------------------------------|
A#|-5-------------------------------5-------------------------------|
F#|-4-------------------------------6-------------------------------|
C#|-2-------------------------------7-------------------------------|
G#|-2-------------------------------4-------------------------------|
D#|-0---------------------------------------------------------------|

  Gtr1
D#|-----------------------------------------------------------------|
A#|15---------------------------------------------------------------|
F#|14b16-14p12-14--14~~~--12------14b16b14-12--14--12-11------------|
C#|--------------------------\\\\------------14--14-----14~~~~12----|
G#|---------------------------\\\\\-----------------------------14-x|
D#|-----------------------------------------------------------------|

  Gtr1
D#|------------------------------------------------------151915--15-----|
A#|---------------12------------------15--15--171517h2017------19--19-15|
F#|-----9-12p9--9-12----9\-----/16------16------------------------------|
C#|--9--------12--------------------------------------------------------|
G#|//-------------------------------------------------------------------|
D#|---------------------------------------------------------------------|

  Gtr2                                PM...................|
D#|-3---------------------------------------------------------------|
A#|-3---------------2-----------------------------------------------|
F#|-0---------------2-----------------------------------------------|
C#|-0---------------2---------------------------------2-2-2-2-2-2-2-|
G#|-x---------------4---------------2-2-2-2-2-2-2-2-2-2-2-2-2-2-2-2-|
D#|-3-------------------------------0-0-0-0-0-0-0-0-0-0-0-0-0-0-0-0-|

  Gtr1
D#|17b19~~pb19~~pb19~~pb19~~pb19---pb19b17-17~~17~~~|
A#|-----------------------------\\------------------|
F#|-----------------------------\\------------------|
C#|-------------------------------------------------|
G#|-------------------------------------------------|
D#|-------------------------------------------------|

  Gtr1
D#|-15-17b19b1715--17--15------------15|
A#|------------------17---1715--15-17--|
F#|--------------17-----------16-------|
C#|------------------------------------|
G#|------------------------------------|
D#|------------------------------------|

  Gtr2
D#|-0-------0-----0-0-0-0-----0-0-0---------------------------------|
A#|-0-------0-----0-0-0-0-----0-0-0-5-----5-5-----5-5-5---5-5-5-5-5-|
F#|-9-------9-----9-9-9-9-----9-9-9-6-----6-6-----6-6-6---6-6-6-6-6-|
C#|-9-------9-----9-9-9-9-----9-9-9-7-----7-7-----7-7-7---7-7-7-7-7-|
G#|-7-------7-----7-7-7-7-----7-7-7-4-----4-4-----4-4-4---4-4-4-4-4-|
D#|-0-------0-----0-0-0-0-----0-0-0---------------------------------|

  Gtr1
D#|---------15-------12---------------------------------------------|
A#|-17~~~-17--1715\12--1512--15-------------------------------------|
F#|------------------------16--161416141412---pb16b14p12--12h14~~~--|
C#|----------------------------------------1216---------14----------|
G#|-----------------------------------------------------------------|
D#|-----------------------------------------------------------------|
                                   *barely audible unless track slowed down

  Gtr1  p    p    p      p      p    p  h   p  h   p  *    p
D#|-------------------------------------------------12-------------------------------|
A#|-15p12-15p12-15-12-15-15p12-15-15p12-15p12----15h12---15p12-12-15-12-17-----17-15-|
F#|-----14----14----14-------14-------14----12h14----12-14----12-------14-14-14------|
C#|----------------------------------------------------------------------------------|
G#|----------------------------------------------------------------------------------|
D#|----------------------------------------------------------------------------------|

  Gtr2
D#|-----------------------------------------------------------------|
A#|-3-----3-3-3-3-3-2-----2-2-----2---------------------------------|
F#|-0-----0-0-0-0-0-2-----2-2-----2-------------------------x-2-----|
C#|-0-----0-0-0-0-0-2-----2-2-----2-------------------------x-2-----|
G#|-x-----x-x-x-x-x-4-----4-4-----4---109-7-9-----109-7-9---x-0-----|
D#|-3-----3-3-3-3-3-----------------0-----------0-------------------|

  Gtr1
D#|--------------------------------------15~~~~~15~~~~~15---x-15---\|
A#|15b17~~pb17~~pb17~~pb17~~x15b17b15----17b19~~17b19~~17b19x-17b19\|
F#|----------------------------------\\\----------------------------|
C#|-----------------------------------\\----------------------------|
G#|-----------------------------------------------------------------|
D#|-----------------------------------------------------------------|

  Gtr2
D#|-0-------0-----0-0-0-0-----0-0-0---------------------------------|
A#|-0-------0-----0-0-0-0-----0-0-0-5-----5-5-----5-5-5---5-5-5-5-5-|
F#|-9-------9-----9-9-9-9-----9-9-9-6-----6-6-----6-6-6---6-6-6-6-6-|
C#|-9-------9-----9-9-9-9-----9-9-9-7-----7-7-----7-7-7---7-7-7-7-7-|
G#|-7-------7-----7-7-7-7-----7-7-7-4-----4-4-----4-4-4---4-4-4-4-4-|
D#|-0-------0-----0-0-0-0-----0-0-0---------------------------------|

  Gtr1
D#|---------15b17--------15b17-----15-17-15------------1719221917------|
A#|-----1517---------1517---------17-----15-17~~~~-1720----------201720|
F#|-9/16---------9/16---------9/16-------------------------------------|
C#|--------------------------------------------------------------------|
G#|--------------------------------------------------------------------|
D#|--------------------------------------------------------------------|

  Gtr1                          ^  ^  ^           
D#|17192119--------19b22--b19-19-18-17-15h17p15---------------------------|
A#|--------2017-x------------------------------17-1517\15-15\10-8h10p8--8-|
F#|-------------------------------------------------------------------10--|
C#|-----------------------------------------------------------------------|
G#|-----------------------------------------------------------------------|
D#|-----------------------------------------------------------------------|

  Gtr2
D#|-----------------------------------------------------------------|
A#|-3-----3-3-3-3-3-2-----2-2-----2---------------------------3-----|
F#|-0-----0-0-0-0-0-2-----2-2-----2---------------------------2-----|
C#|-0-----0-0-0-0-0-2-----2-2-----2---------------------------0-----|
G#|-x-----x-x-x-x-x-4-----4-4-----4---109-7-9-----------------0-----|
D#|-3-----3-3-3-3-3-----------------0-----------0-3-2-0-2---0-x-----|

  __________
  3rd Chorus|
  __________|
  Gtr1                                         *PH (pitch F# bend to G)
D#|-----------------------------------------------------------------|
A#|(8)---\5----\3---~~~~~-------------------------------------------|
F#|-----------------------------------------------------------------|
C#|------------------------------------------*2bbb3~~~~~~~~~~~~~~~~~|
G#|-----------------------------------------------------------------|
D#|-----------------------------------------------------------------|
  *this harmonic is found just right of the double octave harmonic, 
close to bridge pup

  Gtr1&2
D#|-----------------------------------------------------------------|
A#|-----------------------------------------------------------------|
F#|-5-------5-----5-5-4-4-----4-4-4-7-----7-7-----7-7-6-6-----5-5-5-|
C#|-5-------5-----5-5-5-5-----5-5-5-7-----7-7-----7-7-7-7-----6-6-6-|
G#|-3-------3-----3-3-5-5-----5-5-5-5-----5-5-----5-5-7-7-----6-6-6-|
D#|-3-------3-----3-3-3-3-----3-3-3-5-----5-5-----5-5-5-5-----4-4-4-|

  Gtr1
D#|---------------------------------------------------------|
A#|---------------------------------------------------------|
F#|--*------------------------------------------------------|
C#|pb3~~~~~~~~~~~~~~~~~~~~~~~~~~~~~~~~~~~~~~----------------|
G#|---------------------------------------------------------|
D#|---------------------------------------------------------|
*create this 2nd harmonic tone by just lightly touching string with thumb
at the correct spot

  Gtr2
D#|---------------------------------------------------------|
A#|---------------------------------0-----------------------|
F#|-4-----4-4-4-----5-----5-0-------0-----0-----------------|
C#|-5-----5-5-5-2-2-5-----5-4-------4-----4---------5-------|
G#|-5-----5-5-5-2-2-3-----3-2-------2-----------5-----7~~~~~|
D#|-3-----3-3-3-0-0-3-----3-0-------0------/7-----7---------|

  Gtr1&2
D#|-----------------------------------------------------------------|
A#|-5-------5-----5-5-3-3-----3-3-3-3-----3-3-----3-3---------------|
F#|-5-------5-----5-5-4-4-----4-4-4-2-----2-2-----2-2-2-2-----2-2-2-|
C#|-5-------5-----5-5-5-5-----5-5-5-0-----0-0-----0-0-2-2-----2-2-2-|
G#|-3-------3-----3-3-5-5-----5-5-5-0-----0-0-----0-0-0-0-----0-0-0-|
D#|-3-------3-----3-3-3-3-----3-3-3---------------------------------|

                                                  "we'll make our way..
  Gtr1&2
D#|-3-----3-3-3-------------0-------0-----0-0-0-0---0-0-0-0-|
A#|-3-----3-3-3-------------0-------0-----0-0-0-0---0-0-0-0-|
F#|-0-----0-0-0-----5---5-5-0-------0-----0-0-0-0---0-0-0-0-|
C#|-0-----0-0-0-2-2-5---5-5-4-------4-----4-4-4-4---4-4-4-4-|
G#|-x-----x-x-x-2-2-3---3-3-2-------2-----2-2-2-2---2-2-2-2-|
D#|-3-----3-3-3-0-0-3---3-3-0-------0-----0-0-0-0---0-0-0-0-|

  _____
  Outro|
  _____|
                          we'll make our way...                we'll make our way..
  Gtr1 
D#|-----------------------------------------------------------------------|
A#|-----------------------------------------------------------------------|
F#|11-11h1211-11~~11h1211-11~~111211----11h1211-11~~11h1211-11~~12b14b12~~|
C#|---------14----------14----------12~~~-----14----------14--------------|
G#|-----------------------------------------------------------------------|
D#|-----------------------------------------------------------------------|

  Gtr2
D#|-----------------------------------------------------------------|
A#|---------------------------------3-------3-----3-3---------------|
F#|-5-------5-----5-5-4-4-----4-4-4-2-------2-----2-2-2-2---2-2-----|
C#|-5-------5-----5-5-5-5-----5-5-5-0-------0-----0-0-2-2---2-2-5-5-|
G#|-3-------3-----3-3-5-5-----5-5-5-0-------0-----0-0-0-0---0-0-5-5-|
D#|---------3-----3-3-3-3-----3-3-3-----------------------------3-3-|

                   we'll make our way...                 Ooooohhhhh..."
  Gtr1 
D#|------------------------------------------------------------------------|
A#|------------------------------------------------------------------------|
F#|12-11h1211-11~~11h1211-11~~111211---11h1211-11~~11h1211-12b141212b14b12~|
C#|---------14----------14----------12~~~----14----------14----------------|
G#|------------------------------------------------------------------------|
D#|------------------------------------------------------------------------|

  Gtr2
D#|-----------------------------------------------------------------|
A#|---------------------------------3-------3-----3-3---------------|
F#|-5-------5-----5-5-4-4-----4-4-4-2-------2-----2-2-2-2---2-2-----|
C#|-5-------5-----5-5-5-5-----5-5-5-0-------0-----0-0-2-2---2-2-5-5-|
G#|-3-------3-----3-3-5-5-----5-5-5-0-------0-----0-0-0-0---0-0-5-5-|
D#|-3-------3-----3-3-3-3-----3-3-3-----------------------------3-3-|

  Gtr1                                |  3 | |  3 | |  3 |
D#|------------------------------------------------------------------------|
A#|------------------------------------------------------------------------|
F#|12-11h1211-11~~11h1211-11~~1211--111211-111211-111211-11----------------|
C#|---------14----------14--------14-----14-----14-----14-1410-10----------|
G#|----------------------------------------------------------14-1412109-109|
D#|------------------------------------------------------------------------|

  Gtr2
D#|-----------------------------------------------------------------|
A#|-----------------------------------------------------------------|
F#|-5-5-----5-----5-5-4-4-----4-4-4-7-------7-----7-7---------------|
C#|-5-5-----5-----5-5-5-5-----5-5-5-7-------7-----7-7-7-7-----7-7-7-|
G#|-3-3-----3-----3-3-5-5-----5-5-5-5-------5-----5-5-7-7-----7-7-7-|
D#|-3-3-----3-----3-3-3-3-----3-3-3-5-------5-----5-5-5-5-----5-5-5-|

  Gtr1
D#|---------------------------------------------------------|
A#|---------------------------------------------------------|
F#|---------------------------------------------------------|
C#|---------------------9-9~~~~~~~~~~~~~~~~~~~~~~~~~~~~~~~~~|
G#|---------7-x---------------------------------------------|
D#|-12~~~~~\----0-*12---------------------------------------|

  Gtr2
D#|---------------------------------------0---0-0-0-0-------|
A#|-------------------------0-------------0---0-0-0-0-------|
F#|-----------------5---5-5-0-------0-----0---0-0-0-0---0-0-|
C#|-5-----5-5-5-2-2-5---5-5-4-------4---4-4---4-4-4-4---4-4-|
G#|-5-----5-5-5-2-2-3---3-3-2-------2---2-----2-2-2-2---2-2-|
D#|-3-----3-3-3-0-0---------0-------0---0-----0-0-0-0---0-0-|

*They only switch parts when playing this song live.
This is for more fluent playability
Those who have seen live vids of this song know where i'm comin from

  Gtr1                *
D#|---------------------------------------------------------|
A#|---------------------------------------------------------|
F#|-----------------5--5--5--0------------------------------|
C#|(9)~~~~~~~~------5--5--5--4------------------------------|
G#|-----------------3--3--3--2------------------------------|
D#|-----------------3--3--3--0------------------------------|

  Gtr2
D#|-----------------14b15b14--------------------------------|
A#|-------------------------15p12-15b17~~~~~~~~~~~~~~~~~~~~~|
F#|---------------------------------------------------------|
C#|-5-------5-5---------------------------------------------|
G#|-5-------5-5---------------------------------------------|
D#|-3-------3-3-0-------------------------------------------|

  Gtr1(clean)
D#|-------------------------------------------------------0---------|
A#|-----------------------------------------------------------0-----|
F#|---------------0-------------------------------0-------------0---|
C#|---------12------------------------------12--------12----------0-|
G#|-----10----10------------------------10----10--------------------|
D#|-0-----0-----0---------------0-10-9----9-----9-------9-----------|

  Gtr2                                                            PH
D#|-----------------------------------------------------------------|
A#|-(pb17)~~~~~~~~~~~~~~~~~~~~~~~~~~~~~~~~~~~~~~~~~~~~~~~~~~\ 15b17-|
F#|-----------------------------------------------------------------|
C#|-----------------------------------------------------------------|
G#|-----------------------------------------------------------------|
D#|-----------------------------------------------------------------|

  Gtr1
D#|-----------------------------------------------0-----------------|
A#|---------------------------------------------------0-------------|
F#|-----------------------------------------------------0-----------|
C#|---------------0---------------0---------4p0-----------4---------|
G#|-----0---3p2---------0---3p2---------2---------------------------|
D#|-3-----3-----3---2-----2-----2---0-----0-----0-------------------|

  Gtr2                         fade out
D#|-----------------------------------------------------------------|
A#|(pb17)~~~~~~~~~~~~~~~~~~~~~~~~~~~~~~~~~~~------------------------|
F#|-----------------------------------------------------------------|
C#|-----------------------------------------------------------------|
G#|-----------------------------------------------------------------|
D#|-----------------------------------------------------------------|

************************************

| *    Natural harmonic
| >    Accented note
| p    Pull-off
| /    Slide up
| \    Slide down
| ~    Vibrato
| b    Bend
| pb   Pre-bend
| x    Dead note
| h    Hammer-on
| (n)  Ghost note
| PM   Palm mute

************************************
Suggest correction
comments
print report bad tab
11 comments total. Showing first comments.
0 reply
Tremonti333 20 Oct 16, 2007 02:59 PM

Awesome tab... shit that solo is ****ing confusing without the music in the background haha.

This song live is amazing!

0 reply
Kreuger 792 Oct 24, 2007 12:58 PM

The chorus seems to have more chords than played

0 reply
hhstennis_playa 84 Oct 25, 2007 04:41 PM

Hey Rueben you need to get crackin on that blackbird tab now cuz we all know you're the best when it comes to Mark's music

guest
You may want to rate the tab now too:
select rating
Wanna post a correction for this tab? Suggest correction