Oops, an error
Loading. Please wait.

Breathe Tab

version 1
version 1

Whole song

  • Accurate, comprehensive tab with lyrics, chording and fingering.
751 views 54 this week
no commentswrite comment
1 2 3 4 5
x 3
add to favorites
launch autoscroll
font size
0
reset
how to read this tab
guitar tuner
Autoscroll
slow
fast
+/-
esc
set tempo
stop
Help us to improve Ultimate-Guitar.com Take our survey!
×
Author
Difficulty
Tuning
novice
D# G# C# F# A# D#
About this tab version
Accurate, comprehensive tab with lyrics, chording and fingering. Was this info helpful? Yes No
Song: Breathe
Album: The Last Hero (2016)
Artist: Alter Bridge
Tab by: slopecutter


************************************
|A     |-02220|
|Asus4 |-02230|
|Bbadd9|-13311|
|Cmaj7 |-02300|
|Cadd9 |-35533|
|Dsus4 |200233|
|Em    |022000|
************************************

[Intro] (Clean Guitar)

D#|--------------------------------------|-------------------------------------|
A#|--------------------------------------|-------------------------------------|
F#|--------12-------16p12----------------|---------------12-16-12--------------|
C#|--12h16----16p12--------16-12-16\14~--|-------9-12/14----------16-12--------|
G#|--------------------------------------|--7h10------------------------14~----|
D#|0-------------------------------------|0------------------------------------|

D#|--------------------------------------|-----------------------------------12|
A#|--------------------------------------|-----------------------------------12|
F#|--------12-------16p12----------------|---------------------9/12\11~------12|
C#|--12h16----16p12--------16-12-16\14~--|----------------9h12---------------14|
G#|--------------------------------------|--7/9-10p9-9h10--------------------14|
D#|0-------------------------------------|0----------------------------------12|


[Verse 1] (Clean/Distorted Guitar)

Em                  G 
You were hungry for life
              Dsus4
Then you took mine
              Asus4 (*distortion*)
Left me so hollow
Em                 G
And I was eager to play
                   Dsus4
To give you all of me
                   Asus4
For what I'll never know


[Chorus 1] (Clean Guitar)

Cmaj7
Well I'll rest my eyes
                 Em           G
And I'll let the earth breathe
Cmaj7
And I'll bide my time
             Em           G
I'll let the earth breathe


[Verse 2] (Distorted Guitar)

Em                          G 
We want the smoke from our flames
                 Dsus4
It's our saving grace
                 Asus4 
Our lasting passion
Em                        G
And with a knife in our soul
         Dsus4
We realize
                 Asus4
We will not feel it


[Chorus 2] (Distorted Guitar)

Cmaj7
Well I'll rest my eyes
                 Em           G
And I'll let the earth breathe
Cmaj7
And I'll bide my time
             Em           G
I'll let the earth breathe


[Bridge] (Distorted Guitar)

Cadd9
Well it's all I am
Bbadd9                  A
And it makes me feel at home

D#|-----------------------|
A#|-----------------------|
F#|-----------------------|
C#|-------9h12------------|
G#|--7h10-------------7---|
D#|0-----------0--0-0---0-|

Cadd9
And I must be mad
Bbadd9                 A
And I must not care at all

D#|-----------------------------|
A#|-----------------------------|
F#|-----------------------------|
C#|-----------------------------|
G#|-----7-3---2-5---5-3-2-------|
D#|0--0-----0-----0-------5-3-2-|

Cadd9
Well I want my life
Bbadd9               A
And I feel it taking on

D#|-----------------------|
A#|-----------------------|
F#|---------------------9-|
C#|-------9h12------------|
G#|--7h10-------------7---|
D#|0-----------0--0-0-----|

Cadd9
Cause it left me here
Bbadd9             A
And it left me all alone

D#|-----------------------------|
A#|-----------------------------|
F#|-----------------------------|
C#|-----------------------------|
G#|-----7-3---2-5---5-3-2-------|
D#|0--0-----0-----0-------5-3-2-|


[Chorus 3] (Clean/Distorted Guitar)

Cmaj7
Well I'll rest my eyes
                 Em           G
And I'll let the earth breathe
(*distortion*)              
And I'll bide my time
             Em           G
I'll let the earth breathe
Cmaj7
Well I'll rest my eyes
                 Em           G
And I'll let the earth breathe
Cmaj7
And I'll bide my time
             Em           G
I'll let the earth breathe


[Outro] (Clean Guitar)

D#|--------------------------------------|-------------------------------------|
A#|--------------------------------------|-------------------------------------|
F#|--------12-------16p12----------------|---------------12-16-12--------------|
C#|--12h16----16p12--------16-12-16\14~--|-------9-12/14----------16-12--------|
G#|--------------------------------------|--7h10------------------------14~----|
D#|0-------------------------------------|0------------------------------------|

D#|--------------------------------------|-----------------------------------12|
A#|--------------------------------------|-----------------------------------12|
F#|--------12-------16p12----------------|---------------------9/12\11~------12|
C#|--12h16----16p12--------16-12-16\14~--|----------------9h12---------------14|
G#|--------------------------------------|--7/9-10p9-9h10--------------------14|
D#|0-------------------------------------|0----------------------------------12|

************************************
| h   Hammer-on
| p   Pull-off
| r   Release
| /   Slide up
| \   Slide down
************************************
Suggest correction
Give kudos to tab author, rate the tab!
1 2 3 4 5
comments
print report bad tab
guest
You may want to rate the tab now too:
select rating
Wanna post a correction for this tab? Suggest correction