Oops, an error
Loading. Please wait.

Broken Wings Tab

version 3
version 3

Intro

Whole song

Interactive

924 views 1 this week
no commentswrite comment
1 2 3 4 5
please rate
add to favorites
launch autoscroll
font size
0
reset
how to read this tab
guitar tuner
Tab Pro tools
  • play this tab
  • loop segment
  • change instrument
  • show fretboard
  • metronome
×
Best way to learn
"Broken Wings"
Autoscroll
slow
fast
+/-
esc
set tempo
stop
Difficulty
intermediate
THIS IS THE INTRO FOR BROKEN WINGS BY ALTER BRIDGE.
Im told its in drop B but not 100 percent sure if thats true.

E-0--------------------------------|-8-------------------------------|
A------------/9---9--0-------0-----|----10---------------------------|
D---------------7------9---------7-|-10----10------------------------|
G---10b---7----------6---6/7---7---|------------------------------12-|
B----9--7--------------------------|----------10p0-10-10/12-10h12----|
E----------------------------------|---------------------------------|

E-----7-----------------------------|-0-----------------------------------|
A--------9--------------------------|------------/9---9-0-----------------|
D-----9-----9-----------------------|---------------7-----0---------------|
G-------------------8--8/10-8h10--8-|-------------------6---7h9---9-7-9b7-|
B--------------8p0------------------|----------7----------------7---------|
E-----------------------------------|---10-9-7----------------------------|

E-8-------------------------------|-----7---------------------|
A----10---------------------------|--------9------------------|
D-10----10------------------------|-----9-----9---------------|
G------------------------------12-|-------------------8--8/10-|
B----------10p0-10-10/12-10h12----|--------------8p0----------|
E---------------------------------|---------------------------|



*THE TAB BELOW IS PART OF THE INTRO AND PLAYED IN THE VERSE AS WELL*

E-3----------------|-5----------------|-0---------------|-0---------------|
A---5----5-----5---|---5---5------5---|---5---5-----5---|---5---5-----5---|
D-----4------4---4-|-----4------4---4-|-----4-----4---4-|-----4-----4---4-|
G----------0-------|---------0--------|---------0-------|---------0-------|
B------------------|------------------|-----------------|-----------------|
E------------------|------------------|-----------------|-----------------|

E-3----------------|-5----------------|-0---------------|-0---------------|
A---5----5-----5---|---5---5------5---|---5---5-----5---|---5---5-----5---|
D-----4------4---4-|-----4------4---4-|-----4-----4---4-|-----4-----4-----|
G----------0-------|---------0--------|---------0-------|---------0-------|
B------------------|------------------|-----------------|-----------------|
E------------------|------------------|-----------------|-----------------|
comments
We did not receive enough feedback on this tab! Please rate:
print report bad tab
1 2 3 4 5
I want to post or [tab]
guest
You may want to rate the tab now too:
select rating
Please do not post tabs as comments. Select "correction" instead!