Oops, an error
Loading. Please wait.

Burn It Down Tab

version 4
version 4

Whole song

Interactive

23,798 views 6 this week
3 commentsread comments
1 2 3 4 5
x 22
add to favorites
launch autoscroll
font size
0
reset
how to read this tab
guitar tuner
Autoscroll
slow
fast
+/-
esc
set tempo
stop
Help us to improve Ultimate-Guitar.com Take our survey!
×
-----------------------------------------------------------------------------
                             Burn It Down - Alter Bridge
-----------------------------------------------------------------------------
Tabbed by: metguitar
Email: metguitar@aol.com

Tuning: Standard (low to high - EADGBe)

I'm doing this from memory, but it should be pretty close. Listen to the song for
timings and strummings. Enjoy!!


Intro/Verse - Clean

e|--0--0-0-----0----0--0-0-----0--0--0--0--------0----0--0-0-0------------|
B|--0--0-0--0---0---0--0-0--------0--0---0--------0---0--0-0-0------------|
G|--8--8-8--7----7--6--6-6----5---3--3----3--------3--3--3-3-3------------|
D|--9--9-9--7-------7--7-7---5----4--4----------------4--4-4-4-(4-4-4)/---|
A|--9--9-9--5-5-----7--7-7--3-----4--4----------------4--4-4-4--4-4-4-/---|
E|--7--7-7----------5--5-5--------2--2-2----0-2-3-----2--2-2-2--0-2-3-/---|
                                  ^ 
                                  upstroke

Chorus - Clean

e|--0---0---0---0------------------------------------------------------|
B|--0---0---0---0------------------------------------------------------|
G|--8---4---7---6h(7)--------------------------------------------------|
D|--9---5---7---7------------------------------------------------------|
A|--9---5---5---0------------------------------------------------------|
E|--7---3--------------------------------------------------------------|

Fill 1

e|---------------------------------------------------------------------|
B|---------------------------------------------------------------------|
G|------5---5-7b(1/4)-5~~----------------------------------------------|
D|--5h7---7------------------------------------------------------------|
A|---------------------------------------------------------------------|
E|---------------------------------------------------------------------|

Chorus - Distortion

e|-(0)-(0)-(0)-(0)-----------------------------------------------------|
B|-(0)-(0)-(0)-(0)-----------------------------------------------------|
G|--8---4---7---6h(7)--------------------------------------------------|
D|--9---5---7---7------------------------------------------------------|
A|--9---5---5---0------------------------------------------------------|
E|--7---3---5----------------------------------------------------------|

"Whatever takes us away" - Clean or roll the volume on the guitar down low

e|--0---0---0----------------------------------------------------------|
B|--0---0---0----------------------------------------------------------|
G|--2---4---6h(7)------------------------------------------------------|
D|--3---5---7----------------------------------------------------------|
A|--3---5---0----------------------------------------------------------|
E|--1---3--------------------------------------------------------------|
    ^
    upstroke

Fill 2

e|---------------------------------------------------------------------|
B|---------------------------------------------------------------------|
G|--9\7-5---5-7b(1/4)-5------------------------------------------------|
D|--------7------------------------------------------------------------|
A|---------------------------------------------------------------------|
E|---------------------------------------------------------------------|

"Remember you'll find a new way" - Distortion

e|-(0)-----(0)---------(0)-----(0)----------(0)-----(0)----------------|
B|-(0)-----(0)---------(0)-----(0)----------(0)-----(0)----------------|
G|-(2)--5--(4)--7------(2)--5--(4)--7-6-----(2)--5--(4)----------------|
D|--3---5---5---7-------3---5---5---7-6------3---5---5-----------------|
A|--3---3---5---5-------3---3---5---5-4------3---3---5-----------------|
E|--1---3---3---5-------1---3---3---5-4------1---3---3-----------------|


"Oooooon" - Distortion

e|-(0)-----(0)---(0)---(0)---------------------------------------------|
B|-(0)-----(0)---(0)---(0)---------------------------------------------|
G|--6h(7)--(4)---(2)---(4)---------------------------------------------|
D|--7-------5-----3-----5----------------------------------------------|
A|--0-------5-----3-----5----------------------------------------------|
E|----------3-----1-----3----------------------------------------------|

Last Chorus - Distortion

e|-(0)-----(0)-------(0)-----------------------------------------------|
B|-(0)-----(0)-------(0)-----------------------------------------------|
G|--6h(7)--(2)---5---(4)-----------------------------------------------|
D|--7-------3----5----5------------------------------------------------|
A|--0-------3----3----5------------------------------------------------|
E|----------1----3----3------------------------------------------------|

Solo Chords - Distortion

e|-(0)-----(0)---(0)---(0)---------------------------------------------|
B|-(0)-----(0)---(0)---(0)---------------------------------------------|
G|--6h(7)--(4)---(2)---(4)---------------------------------------------|
D|--7-------5-----3-----5----------------------------------------------|
A|--0-------5-----3-----5----------------------------------------------|
E|----------3-----1-----3----------------------------------------------|

Last Chord

e|-(0)-----------------------------------------------------------------|    
B|-(0)-----------------------------------------------------------------|
G|--6------------------------------------------------------------------|
D|--7------------------------------------------------------------------|
A|--0------------------------------------------------------------------|
E|---------------------------------------------------------------------|


| /  slide up
| \  slide down
| h  hammer-on
| p  pull-off
| ~  vibrato
| +  harmonic
| x  Mute note
=============================================================================
Suggest correction
comments
print report bad tab
3 comments total.
-2 reply
tremontijr 10 Sep 08, 2004 12:00 AM

This song is in an alternate tuning. I believe he is using a baritone guitar tuned B E A D G B, like a 7 string without the high E string.

0 reply
eplp22 10 Feb 03, 2005 12:00 AM

I would give it a 5, but ther isn't a solo tabbed so I gave it a 4, but the rest is great anyway and at least u put the solo chords in

0 reply
baz_rez 10 Feb 21, 2006 01:07 AM

Thanks, Great tab. Solo would be nice but the rest is awesome. Shot

guest
You may want to rate the tab now too:
select rating
Wanna post a correction for this tab? Suggest correction