Oops, an error
Loading. Please wait.

Coeur Dalene Bass Tab

version 1
version 1

Whole song

Interactive

1,043 views 1 this week
no commentswrite comment
1 2 3 4 5
please rate
add to favorites
launch autoscroll
font size
0
reset
guitar tuner
Tab Pro tools
  • play this tab
  • loop segment
  • change instrument
  • show fretboard
  • metronome
×
Best way to learn
"Coeur Dalene"
Autoscroll
slow
fast
+/-
esc
set tempo
stop
Contributor
Difficulty
Tuning
intermediate
B E A D F# B
Alter Bridge - Coeur D'Alene
From 'AB III'
Tuning - drop Db (Bb Db Ab Db Gb)
tabbed by jjhand

Brian plays this with the 5 string bass on the Live from Wembley but 
stays in unison with guitar so theres no notes used on the 5th string.
On ABIII he uses the low string only during the guitar solo so I included 
that part. Please rate/comment. 

Intro - Guitar only


Main Riff, played 4x
Gb|---------------------------------|-----------------------------|
Db|---------------------------------|-----------------------------|
Ab|---------------------------------|-----------------------------|
Db|-0-0-13-12--0---0-0-8/11-7---0-0-|-0-8-7---0---0-8-7-0---3-2-1-|





Verse 1 - 8 bars guitar only, then bass plays

play this line 2x, then continue below
|------------------------------|----------------------|
|------------------------------|----------------------|
|------------------------------|----------------------|
|-0-0-0-1---2p1--0-0-0-1---2p1-|-0-0-0-1---2p1p0------|



|----------------------------------|-------------------|
|----------------------------------|-------------------|
|----------------------------------|-------------------|
|/10-10-10-10--10--10-10-10-10--10-|-8-8-8-8--8-8-8----|

play main riff 1x






Chorus - played 2x (1:26)
|-----------------------------|--------------------------------------|
|-----------------------------|--------------------------------------|
|-----------------------------|----------------10--------------------|
|-8-8-8-8-8-8-8-8-8-8--7--7h8-|-10-10-10-10-10----10-10-10-8-9--9--8-|

|----------------------------|-----------------------------------|
|----------------------------|-----------------------------------|
|----------------------------|-----------------------------------|
|-8-8-8-8-8-8-8-8--7--7--/12\|-0-0-13-12---0---0-0-8/11-7---0--0-|

|-----------------------------|----------------------------------|
|-----------------------------|----------------------------------|
|-----8---8h10p8--------------|-------------10----10h12----------|
|-8-8---8--------8-8-8--7-7h8-|-10-10-10-10----10--------9--9----|

|---------------------------|
|---------------------------|
|-----------8---------------|  play main riff again
|-8-8-8-8-8---8-8-8-8-7--7--|




Play Verse Again

Play Chorus Again Similarly



Bridge (2:53) - Guitar plays first bar alone, then bass joins:

|------------------------|------------------------|
|------------------------|------------------------|
|-3h5-----3h5------------|-6p5-6p5---3h5----------|
|-----4-------3---3h5-1--|---------0-----0-0--12\-|

|------------------------|------------------------|
|------------------------|------------------------|
|-3h5-----3h5------------|-6p5-6p5---3h5----------|
|-----4-------3---3h5-1--|---------0-----0-0--12\-|

|------------------------|------------------------|
|------------------------|------------------------|
|-3h5-----3h5------------|-6p5-6p5---3h5----------|
|-----4-------3---3h5-1--|---------0-----0-0--12\-|

|------------------------|-------------|-------------|
|------------------------|-------------|-------------|
|-3h5-----3h5------------|-------------|-------------|
|-----4-------3---3h5-1--|-0---4-------|-5---8-------|

|-------------|------------------------|
|-------------|------------------------|
|-------------|------------------------|
|-0---4-------|-5--5--5--5--5--5--5--5-|



Play Chorus Again


Guitar Solo - 
Gb|-----------------------------|----------------------------------|
Db|-----------------------------|----------------------------------|
Ab|-----------------------------|----------------------------------|
Db|-8-8-8-8-8-8-8-8-8-8--7--7h8-|-10-10-10-10-10-10-10-10-10-10-9__|
Bb|-----------------------------|----------------------------------|

|----------------------------|-----------------------------------|
|----------------------------|-----------------------------------|
|----------------------------|-----------------------------------|
|-8-8-8-8-8-8-8-8--7--7------|-0-0-13-12---0---0-0-8/11-7---0--0-|
|----------------------------|-----------------------------------|

|-----------------------------|-----------------------------|
|-----------------------------|-----------------------------|
|-----------------------------|-----------------------------|
|-8-8-8-8-8-8-8-8-8-8-7---7---|-----------------------------|
|-----------------------------|-2-2-2-2-2-2-2-2-2-2-1---1---|

|---------------------------|
|---------------------------|
|---------------------------|  play main riff again
|-8-8-8-8-8-8-8-8-8-8-7--7--|
|---------------------------|


Continue playing main riff to end song


Key

/  slide
h  hammer-on
p  pull-off
comments
We did not receive enough feedback on this tab! Please rate:
print report bad tab
1 2 3 4 5
I want to post or [tab]
guest
You may want to rate the tab now too:
select rating
Please do not post tabs as comments. Select "correction" instead!