Oops, an error
Loading. Please wait.

Cradle To The Grave Tab

version 1
version 1

Whole song

  • Expanded on previous version and added the solo to make this tab complete.
985 views 162 this week
3 commentsread comments
1 2 3 4 5
x 6
add to favorites
launch autoscroll
font size
0
reset
how to read this tab
guitar tuner
Autoscroll
slow
fast
+/-
esc
set tempo
stop
Help us to improve Ultimate-Guitar.com Take our survey!
×
Author
Tuning
D# G# C# F# A# D#
One of my favourites from the album :) Just drop the top D# string to C# (like Addicted To Pain, Lover, etc)

[Intro]
D#|------------------|  Acoustic part:  D#|----------------------|
A#|-8~-8~-10~--------|                  A#|----------------------|
F#|------------------|                  F#|-----0~-----0~-----0~-|
C#|------------------|                  C#|--10-----10-----12----|(x2) Just play first 2 bars then stop
G#|-8~-7~-9~-(x4)----|                  G#|-8--8---7--7---9--9---|
C#|---------------8~-|                  C#|----------------------|

D#|----------------|        D#|-----------------------------------------------------|
A#|-11----/10------|        A#|-----------------------------------------------------|
F#|-12(x9)/10(x10)-|        F#|-----------------------------------------------------|
C#|----------------|        C#|-5-5-0-5-8-7~-5-3-1-1-1-1-1-1~------8-8-8-8-8-8-8-7~-|
G#|----------------|        G#|-5-5-0-5-8-7~-5-3-1-1-1-1-1-1~------8-8-8-8-8-8-8-7~-|
C#|----------------|        C#|-5-5-0-5-8-7~-5-3-1-1-1-1-1-1~-(x3)-8-8-8-8-8-8-8-7~-|   

[Verse] Basically repeat the same pattern but I'll list what to play after each time :)
D#|----------------------------------| |-------------------|
A#|----------------------------------| |-------------------| 
F#|----8-7~---7-5~---5-3-2~-2-3-2-0~-| |----8-7~----5-3-2~-|
C#|----------------------------------| |-------------------| 
G#|----------------------------------| |-------------------|
C#|-5-5----5-5----3-3----------------| |-5-5----3-3-3-3-3~-| 

D#|-----------|                    |----------|                |------------|
A#|-----------|                    |----------|                |------------|
F#|----0------|                    |-3-3h2-2~-|                |-7/10-------|
C#|-0h2-2-1-0-|(After 2nd+7th time)|----------|(After 3rd time)|-----10-8-7-|(After 6th time)
G#|-----------|                    |----------|                |------------|
C#|-----------|                    |-3-3-3-3~-|                |------------|

[Chorus]
D#|------------------------------|
A#|------------------------------|
F#|------------------------------|
C#|-5-5-5-5-5-8-7-5~-1-1-1-1-1-1-|
G#|-5-5-5-5-5-8-7-5~-1-1-1-1-1-1-|(x3)
C#|-5-5-5-5-5-8-7-5~-1-1-1-1-1-1-|

D#|------------------|         D#|------------------|
A#|------------------|         A#|------------------|
F#|------------------|         F#|------------------|
C#|-8-8-8-8-8-8-8-7~-|         C#|-8-8-8-8-8-8-8-7~-|(After second chorus end on this)
G#|-8-8-8-8-8-8-8-7~-|         G#|-8-8-8-8-8-8-8-5~-| Credit to Dolo1993 :D
C#|-8-8-8-8-8-8-8-7~-|         C#|-8-8-8-8-8-8-8-4~-|

[Bridge] Tried my best with this part, not 100% accurate:
D#|-------------------------------------|    |--------------------------------------|
A#|-------------------------------------|    |------8-7-0----------10p7------10b-10~|
F#|-------------------------------------|    |-8p7h8----(x4)-7h8p7-----8(x4)--------|
C#|-10-10~-8-8~-3~------4-4-4-4-4-4-4-4-|    |--------------------------------------|
G#|-10-10~-8-8~-3~------4-4-4-4-4-4-4-4-|    |--------------------------------------|
C#|-10-10~-8-8~-3~-(x2)-4-4-4-4-4-4-4-4-|    |--------------------------------------|

[Outro] Basically repeat chorus and bridge then end on this:
D#|-----------------------------|
A#|-----------------------------|
F#|-----------------------------|
C#|-1-3-5-7-8-7--1-3-5-7-8-7-5~-|
G#|-1-3-5-7-8-7--1-3-5-7-8-7-5~-|
C#|-1-3-5-7-8-7--1-3-5-7-8-7-5~-|


And that's what I got! No solo for this one unfortunately, as I ain't the best at them :(
But I hope it's alright nonetheless! :D

************************************

| ~  Vibrato
| /  Slide up
| h  Hammer-on
| p  Pull-off
| b  Bend

************************************
Suggest correction
comments
print report bad tab
3 comments total.
+1 reply
Dolo1993 141 Nov 12, 2016 08:35 AM

Cool tab dude, but the second half of the chorus is rather:

D#|------------------|
A#|------------------|
F#|------------------|
C#|-8-8-8-8-8-8-8-7~-|
G#|-8-8-8-8-8-8-8-5~-|
C#|-8-8-8-8-8-8-8-4~-|

0 reply
jack.tyler-prime 271 Nov 14, 2016 08:58 AM

Thanks man! And cheers for catching that out!

0 reply
Kreuger 792 Nov 16, 2016 07:31 PM

In the verse, the second notes on the F# sound like really quick slides. I havent tried playing along yet though.

guest
You may want to rate the tab now too:
select rating
Wanna post a correction for this tab? Suggest correction