Oops, an error
Loading. Please wait.

Cry Of Achilles Tab

version 1
version 1

Intro

Whole song

21,324 views 60 this week
1 commentread comment
1 2 3 4 5
excellent!
x 8
add to favorites
launch autoscroll
font size
0
reset
how to read this tab
guitar tuner
Autoscroll
slow
fast
+/-
esc
set tempo
stop
Help us to improve Ultimate-Guitar.com Take our survey!
×
Author
Difficulty
Tuning
intermediate
D# G# C# F# A# D#
Acoustic Intro

Eb|-------------|   <---
Bb|-------0---1-|     |
Gb|---2---2---2-| x4  |
Db|-----2---2---|     |
Ab|-0-----------|     |
Eb|-------------|     |
                      | 
Eb|-------------|     |
Bb|---0---0---3-|     |
Gb|-----1-1-1-1-| x2  |---x2
Db|-------------|     |
Ab|-0-----------|     |
Eb|-------------|     |
                      |
Eb|--------------|    |
Bb|-----0---0----|    |
Gb|---7---7---10-| x2 |
Db|---9---9---9--|    |
Ab|-0------------|    |
Eb|--------------|  <---

Eb|-------------|   
Bb|-------0---1-|     
Gb|---2---2---2-| x4  
Db|-----2---2---|     
Ab|-0-----------|     
Eb|-------------|

Eb|-------------|   
Bb|-------1---3-|     
Gb|---0---0---0-| x4  
Db|-----2---2---|     
Ab|-------------|     
Eb|-3-----------|

Eb|-------------------------------------------------|   
Bb|-------1---3-------1---3-------1---1-------0---0-|     
Gb|---2---2---2---2---2---2---2---2---2---2---2---2-|  
Db|-----0---0-------0---0-------0---0-------0---0---|     
Ab|-------------------------------------------------|     
Eb|-2-----------2-----------2-----------2-----------|

Eb|---------------------------------------------------------------------------------|   
Bb|------------------------------6-5-4-----5-4--------------------------------------|     
Gb|------------------------------------5-4-----5-4----------------------------------|  
Db|---0------0------0-------0----------------------/9-7-6-6h7p6---6-----------5-----|     
Ab|-----2------5------8-------11--------------------------------8---8-7-5-7-8---8-7-|     
Eb|-0-----/4-----/7-----/10---------------------------------------------------------|
Suggest correction
comments
print report bad tab
1 comment total.
0 reply
richardsim7 129 wrote on December 21 2013, 08:06 am

D#||---------------------------------------|-------------------------------------|
A#||----------0-----1-----------0-----1----|-----------0-----1-----------0-----1-|
F#||o---2-----2-----2-----2-----2-----2----|-----2-----2-----2-----2-----2-----2-|
C#||o------2-----2-----------2-----2-------|--------2-----2-----------2-----2----|
G#||-0-----------------0-------------------|--0-----------------0----------------|
D#||---------------------------------------|-------------------------------------|

----------------------------------------|---------------------------------------||
-----------0-----3-----------0-----3----|-----------0-----6-----------0-----6---||
-----4-----4-----4-----4-----4-----4----|-----7-----7-----7-----7-----7-----7--o||
--------6-----6-----------6-----6-------|--------9-----9-----------9-----9-----o||
--0-----------------0-------------------|--0-----------------0------------------||
----------------------------------------|---------------------------------------||

----------------------------------------|----------------------------------------|
-----------0-----1-----------0-----1----|-----------0-----1-----------0-----1----|
-----2-----2-----2-----2-----2-----2----|-----2-----2-----2-----2-----2-----2----|
--------2-----2-----------2-----2-------|--------2-----2-----------2-----2-------|
--0-----------------0-------------------|--0-----------------0-------------------|
----------------------------------------|----------------------------------------|

----------------------------------------|----------------------------------------|
-----------1-----3-----------1-----3----|-----------1-----3-----------1-----3----|
-----0-----0-----0-----0-----0-----0----|-----0-----0-----0-----0-----0-----0----|
--------2-----2-----------2-----2-------|--------2-----2-----------2-----2-------|
----------------------------------------|----------------------------------------|
--3-----------------3-------------------|--3-----------------3-------------------|

----------------------------------------|----------------------------------------|
-----------1-----3-----------1-----3----|-----------1-----3-----------0-----0----|
-----2-----2-----2-----2-----2-----2----|-----2-----2-----2-----2-----2-----2----|
--------0-----0-----------0-----0-------|--------0-----0-----------0-----0-------|
----------------------------------------|----------------------------------------|
--2-----------------2-------------------|--2-----------------2-------------------|

----------------------------------------|----------------------------------------|
----------------------------------------|--6--5--4--3--0--5--4--1--0-------------|
----------------------------------------|-----------------------------4--2--1----|
-----0--------0--------0--------0-------|----------------------------------------|
--------2--------5--------8--------11---|----------------------------------------|
--0--------4--------7--------10---------|----------------------------------------|

--------------------------------------------------||
--------------------------------------------------||
--1h--2p--1-----1-----------------0---------------||
-------------3-----3--2--0--2--3-----3--2~~~~~~~~~||
--------------------------------------------------||
--------------------------------------------------||

guest
You may want to rate the tab now too:
select rating
Please do not post tabs as comments. Select "correction" instead!