Oops, an error
Loading. Please wait.

End Is Here Tab

version 2
version 2

Whole song

Interactive

5,461 views 3 this week
3 commentsread comments
1 2 3 4 5
x 5
add to favorites
launch autoscroll
font size
0
reset
how to read this tab
guitar tuner
Autoscroll
slow
fast
+/-
esc
set tempo
stop
Help us to improve Ultimate-Guitar.com Take our survey!
×
BAND:Alter Bridge
Song:The End Is Here
Album:One Day Remains
Tabbed by: Mathew A. RoCk3r_GuItArIsT
E-mail:rock3r_guitarist@yahoo.com

Note: This is my first tab on this band and I know this is not the real tunning, It's
so hard to find the standard tunning of this song so I suggest to tab it on my own,
Sorry if I miss some notes, email me with your corrections

TUNNING:DROP D

INTRO
e|-----------------------------------------------------------------|
b|-----------------------------------------------------------------|
g|---17----15---13--13/15\13--12-12--11-12-13-12-10--10/12\10-9----|
D|-----------------------------------------------------------------|
A|-15----13---11----11/13\11--10-10--9--10-11-10-8---8/10\-8--7----|
D|-----------------------------------------------------------------|

VERSE PART 1 (Strum PART)
e|-----------------------------------------------------------------|
b|-----------------------------------------------------------------|
g|5-5-7-8-5-5-4-4-4/7-7-\5-7-8-5------7778108755p3-----------------|
D|x-x-x-x-x-x-x-x-x-x-x--x-x-x-x-------------------5~--------------|
A|3-3-5-6-3-3-2-2-2/5-5-\3-5-6-3-----------------------------------|
D|-----------------------------------------------------------------|

VERSE PART 2 (Strum this chords until you reach this part
e|--------------------------------------------||---------------------| 
b|--------------------------------------------||---------------------| 
g|7/8-5-5-4-4-4/7-\5-5-5--7-8-5-5-4-4-4-4-5---||---------------------| B4 the chorus
D|x-x-x-x-x-x-x-x--x-x-x--x-x-x-x-x-x-x-x-x---||-4-4--5-5------------| (Distortion)
A|5/6-3-3-2-2-2/5-\3-3-3--5-9-3-3-2-2-2-2-3---||-2-3--3-3------------|
D|--------------------------------------------||---------------------|

CHORUS (strum)
e|-----------------------------------------------------------------|
b|-----------------------------------------------------------------|
g|---------7--8-------------3~--3/4\3--2~--------------------------|
D|10----9--5--6--10pm9--1---x---x-x-x--2~-x-6-6--7-7---------------|
A|10----9--5--6--10pm9--1---1~--1/2\1--0~-x-4-4--5-5---------------|
D|10----9--5--6--10pm9--1-----------------x------------------------|


Repeat Verse Part 1 then add this note on the last 

e|-----------------------------------------------------------------|
b|-----------------------------------------------------------------|
g|-----------------------------------------------------------------|
D|----6-5p3--------------------------------------------------------|
A|1-3------5-------------------------------------------------------|
D|-----------------------------------------------------------------|

THEN DO THIS:
Verse Part 2
Chorus
Plucking part on Verse Part 1 for the Bridge part 1

Bridge Part 2 (Pluck the A string using this note)
e|-----------------------------------------------------------------|
b|-----------------------------------------------------------------|
g|-----------------------------------------------------------------|
D|-----------------------------------------------------------------|
A|15-13-11/13\11--10-9-10-11-8-8/10-8-7-7--------------------------|
D|-----------------------------------------------------------------|

Struming part(Distortion) (On the 2nd times use WAH)
e|----------------------------------------------------------------------------|
b|----------------------------------------------------------------------------|
g|-17-17-17----15-15-15----12---13-15-13--12-12-11-12-13--12---10-10-9--9~----|
D|xx--x--x--x--x--x--x---x-x--x-x--x--x---x--x--x--x--x---x--x-x--x--x--------|
A|x15-15-15-x--13-13-13--x-10-x-11-13-11--10-10-9--10-11--10-x-8--8--7--------|
D|x---------x------------x----x------------------------------x----------------|

PART 2
e|--------------------------------------------------------------------|
b|--------------------------------------------------------------------|
g|17----13----15----12----13----10---12----10--10~--------------------|
D|x--xx-x--xx-x--xx-x--xx-x--xx-x-xx-x--xx-x-------12\----------------|
A|15-xx-11-xx-13-xx-10-xx-11-xx-8-xx-10-xx-8-------12\----------------|
D|---xx----xx----xx----xx----xx---xx----xx---------12\----------------|

Repeat Chorus

OUTRO                                                 (WAH PART)
e|------------------------------------------------------------------------------|
b|------------------------------------------------------------------------------|
g|-----------------------------------------------------8\6-5--------------------|
D|6-6-x-6-x-6-6-6-6-6----5-5/8-8\5-5/8-8\5-5/8-8\5-5---x\x-x--------------------|
A|4-4-x-4-x-4-4-4-4-4----3-3/6-6\3-3/6-6\3-3/6-6\3-3---6\4-3--------------------|
D|----x---x---------------------------------------------------------------------|

THEN BRIDGE PART 1 & 2

END CHORDS
e|--------|
b|--------|
g|--------|
D|10~-----|
A|10~-----|
D|10~-----|
Suggest correction
comments
print report bad tab
3 comments total.
0 reply
Andrew Zara 41,509 Mar 07, 2005 12:00 AM

I dont know who gave you 1 star but this is definitly not one.The intro is a little off,but you still get a 5 star though.Good Job.

0 reply
stpamamos 10 Mar 08, 2005 12:00 AM

Tuning for this song is suppsed to be Drop D and then one step down. You kind of have an ear for the right notes but the tabbing is incorrect. If it is your first tab though then good job.

0 reply
poc2112 20 Apr 17, 2006 04:51 PM

I have to agry with "stpamamos", but still a good tab.

guest
You may want to rate the tab now too:
select rating
Wanna post a correction for this tab? Suggest correction