Oops, an error
Loading. Please wait.

Fallout bass

version 1
version 1

Whole song

Interactive

829 views 1 this week
no commentswrite comment
1 2 3 4 5
2 more votes to show rating
add to favorites
×
Save as Personal and add changes to this tab that will be seen only by you. Learn more ›
×
You can save this tab as Personal to edit and correct it or add notes. All changes will be seen only by you. Learn more »
launch autoscroll
font size
0
reset
guitar tuner
edit
Autoscroll
slow
fast
+/-
esc
set tempo
stop
Alter Bridge - Fallout
From "AB III"
5 String Standard Bass Tuning
tabbed by jjhand (ultimate-guitar.com)

A lively bass part by Brian on this Alter Bridge Song. Please comment/rate.

Intro (0:08)      Verse
G|--------------||------------|-----------------|--------------------|
D|--------------||------------|-----------------|--------------------|
A|--------------||------------|-----------4-----|-------9------------|
E|-2/17___\-----||------------|--------/4-------|-7---7---7----------|
B|--------------||-2----------|-2-----------2---|-------------7/14\--|

|--------------|-----------------|---------------------|------------------|
|--------------|-----------------|---------------------|------------------|
|--------------|-----------------|-----4---------------|-----9------/7\/7-|
|-5-----4------|-------0h2---2/4-|---------0h2---2/4---|-7-----7-7--------|
|--------------|-2---------2-----|-2-----------2-----2-|------------------|

|--------------------|
|-7--7-7----6--6-6---|
|--------------------|
|--------------------|
|--------5/--------5-|



Prechorus
|---------------|-----------------------------|
|---------------|-----------------------------|
|---------------|-----------------------------|
|---------------|-------------9-9-9-9-9-9-9-9-|
|-2-------------|-5--5--7--7------------------|



Chorus
|----------------------------|-----------------------------|
|----------------------------|-----------------------------|
|----------------------------|-----------------------------|
|-5--5-5-5---5-5-5---5--5--4-|-----------------------------|
|----------------------------|-5---5-5-5---5--5-5--5-5-5-5-|

|----------------------------|-----------------------------|
|----------------------------|-----------------------------|
|--------------------4h6-4---|----------------4-6--7-6-4---|
|--------------------------4-|-7--7-7--7--7-7--------------|
|-2--2--2-2--2--2-2----------|-----------------------------|

|--------------------------------|-----------------------------|
|--------------------------------|-----------------------------|
|--------------------------------|-----------------------------|
|-5--5-5-5-5-5-5-5-5-5-5-5-5-4-4-|-----------------------------|
|--------------------------------|-5---5-5-5---5--5-5--5-5-5-5-|

|----------------------------|-----------------------|
|----------------------------|-----------------------|
|--------------------4/6-4---|-----------------------|
|----------------------------|-----------------------|
|-2--2--2-2--2--2-2--------2-|-0---0---0-0---0--0--0-|




Verse 2 

G|-------------|------------------|--------------------|
D|-------------|------------------|--------------------|
A|-------------|------------------|-------9------------|
E|---------7---|--------------7h9-|-7---7---7----------|
B|-2----/7---7-|-2-----5/7-7/9----|-------------7/14\--|

|--------------------|
|-7--7-7----6--6-6---|
|--------------------|
|--------------------|
|--------5/--------5-|


Lyrics begin again:
|-------------------|-----------------|---------------------|
|-------------------|-----------------|---------------------|
|-------------------|-----------------|-------9---------9---|
|------------2--2h4-|-------------2h4-|-7---7---7---7-7-----|
|-2----5p2-2--------|-2----4h5--2-----|---------------------|


|---------------------|---------------|----------------|
|---------------------|---------------|----------------|
|-------7---------6---|---------------|----------------|
|-5---5---5-4---4---4-|--------0h2--0-|-------0h2-2h4--|
|---------------------|-2-------------|-2--------------|


|----------------------|--------------------|
|----------------------|--------------------|
|--------------9-------|--------------------|
|-7----7-9-11----11-9--|-5-5-5---4-4-4------|
|----------------------|---------------5----|




Play Prechorus Again

Play Chorus Again




Bridge (2:15)

 play 5x
|-----------------|-------------------|
|-----------------|-------------------|
|-----------------|-------------------|
|-5-------2-------|-----2---5-4-------|
|-----5-------2---|-3-----------5--2--|


(2:43)

play 2x, different endings below
|-----------------|----------------------|-----------------|
|-----------------|----------------------|-----------------|
|-----------------|----------------------|-----------------|
|-5-------2-------|-----2---5-4----------|-5-------2-------|
|-----5-------2---|-3-----------5--2-3-2-|-----5-------2---|

  1st time                       2nd time
|-------------------|         |----------------------|
|-------------------|         |----------------------|
|-------------------|         |----------------------|
|-----2---5-4----9\-|         |-----2---5-4----------|
|-3-----------5-----|         |-3-----------5--2-3---|





Play Chorus Again similarly

Continue Chorus through Guitar Solo

(3:51-4:13) Play Bridge Again To end Song


Key:

/ = Slide up
\ = Slide down
h = hammer on

            
            
Suggest correction
Creating personal tab
Creating personal tab
You can edit any tab online and save it as your Personal.

You can edit, replace or remove any tab part or add personal notes – all changes will be seen only by you.

Personal tabs can be accessed anytime from any device, even offline.
Learn more »
Give kudos to tab author, rate the tab!
1 2 3 4 5
comments
print report bad tab
guest
You may want to rate the tab now too:
select rating
Wanna post a correction for this tab? Suggest correction