Oops, an error
Loading. Please wait.

Fallout Tab

version 1
version 1

Whole song

Interactive

28,624 views 27 this week
9 commentsread comments
1 2 3 4 5
x 11
add to favorites
launch autoscroll
font size
0
reset
how to read this tab
guitar tuner
Autoscroll
slow
fast
+/-
esc
set tempo
stop
Help us to improve Ultimate-Guitar.com Take our survey!
×
Author
Difficulty
Tuning
intermediate
C# G# C# F# A# D#
Fallout - Alter Bridge - Full Song
Tabbed by: Angrypoonani
Email: angrypoonani@gmail

Tuning: Drop C#

[Intro/1st Verse]
Light Crunch Electric w/ Acoustic Back Track
D#|---------------------------------------------------------|
A#|-5h6p5------------------------5h6p5----------------------|
F#|-------7-5h7-----0h5--2-------------7-5h7-----0h5--2-0---|
C#|-------------0----------0h5h7-------------0----------5---|
G#|---------------------------------------------------------|
C#|-0-------------0----0---0-----0-------------0----0---0---|

D#|-----------------------------0-----------0---------------|
A#|-----------------------3-------------5-----------5-------|
F#|--0h2p0------------------0-----5------5----5-------5-----|
C#|-------3-0h2---2-3---3-----3-------------------------7*--|
G#|-3-----------3-----3-----------3---3---3---3---3-----7*--|
C#|---------------------------------------------------------|

[0:11]
D#|---------------------------------------------------------|
A#|-5h6p5------------------------5h6p5----------------------|
F#|-------7-5h7-----0h5--2-------------7-5h7-----0h5--2-0---|
C#|-------------0----------0h5h7-------------0----------5---|
G#|---------------------------------------------------------|
C#|-0-------------0----0---0-----0-------------0----0---0---|
 (Rebel....)

D#|-----------------------------0-----------0---------------|
A#|-----------------------3-------------5-----------5-------|
F#|--0h2p0------------------0-----5------5----5-------5-----|
C#|-------3-0h2---2-3---3-----3-------------------------5*--|
G#|-3-----------3-----3-----------3---3---3---3---3-----5*--|
C#|---------------------------------------------------------|
(Honor...)

[0:22]
D#|---------------------------------------------------------|
A#|-5h6p5------------------------5h6p5----------------------|
F#|-------7-5h7-----0h5--2-------------7-5h7-----0h5--2-0---|
C#|-------------0----------0h5h7-------------0----------5---|
G#|---------------------------------------------------------|
C#|-0-------------0----0---0-----0-------------0----0---0---|
 (Anguish...)

D#|-----------------------------0-----------0-----------0---|
A#|-----------------------3-------------5-----------5-------|
F#|--0h2p0------------------0-----5------5----5-------5-----|
C#|-------3-0h2---2-3---3-----3-----------------------------|
G#|-3-----------3-----3-----------3---3---3---3---3---------|
C#|---------------------------------------------------------|
 (Day...)

[0:34]
D#|---------------------------------------------------------|
A#|-5h6p5------------------------5h6p5----------------------|
F#|-------7-5h7------------------------7-5h7----------------|
C#|-------------0----------------------------0--------------|
G#|---------------------------------------------------------|
C#|-0-------------00---0---0---0-0-------------000000000----|
(Lost...)                                       
          
D#|---------------------------------------------------------|
A#|---------------------------------------------------------|
F#|---------------------------------------------------------|
C#|------------------------------------------------/////////|
G#|------------------------------------------------/////////|
C#|------------------------------------------------/////////|

[1st Chorus](Distortion)
[Phrase 1: Played twice]
[The second time phrase 1 is]
[played phrase 2 is played over it]
[0:39]
D#|--8-----3--3-----0-----3---|
A#|--11----6--5-----3-----3---|
F#|--10----5--5-----2-----5---|
C#|--8-----3--3-----0-----5---|
G#|--8-----3--3-----0-----3---|
C#|--8-----3--3-----0---------|

[Phrase 2]
[0:50]
D#|-----------------0-----3--|
A#|--11----8-/-10---3-----3--|
F#|-----------------2-----5--|
C#|--8-----5-/-7----0-----5--|
G#|-----------------0-----3--|
C#|-----------------0--------|

[2nd Verse]
(Light Crunch Electric w/ Acoustic Back Track)
[1:02]
D#|---------------------------------------------------------|
A#|-5h6p5------------------------5h6p5----------------------|
F#|-------7-5h7-----0h5--2-------------7-5h7-----0h5--2-0~--|
C#|-------------0----------0h5h7-------------0----------5~--|
G#|---------------------------------------------------------|
C#|-0-------------0----0---0-----0-------------0----0---0---|

(Own...)
D#|---------------------------------------------------------|
A#|-10v~~~---------------------------------------------10-13|
F#|---------------------------------------------------------|
C#|---------------------------------------------------------|
G#|---------------------------------------------------------|
C#|---------------------------------------------------------|

[1:07]
D#|-----------------------------0-----------0---------------|
A#|-----------------------3-------------5-----------5-------|
F#|-0h2p0-------------------0-----5------5----5-------5-----|
C#|-------3-0h2---2-3---3-----3-------------------------5*--|
G#|-3-----------3-----3-----------3---3---3---3---3-----5*--|
C#|---------------------------------------------------------|

D#|---------------------------------------------------------|
A#|---------------------------------(fpbr)------------------|
F#|12fbrv~~~~-------------------10-12-12-p-10---------------|
C#|-------------------------------------------12-12v~~~~----|
G#|---------------------------------------------------------|
C#|---------------------------------------------------------|

[1:13]
D#|---------------------------------------------------------|
A#|-5h6p5------------------------5h6p5----------------------|
F#|-------7-5h7-----0h5--2-------------7-5h7-----0h5--2-0---|
C#|-------------0----------0h5h7-------------0----------5---|
G#|---------------------------------------------------------|
C#|-0-------------0----0---0-----0-------------0----0---0---|

(Frustrated...)           
D#|-------------------------17------------------------------|
A#|-13/15\13/15-13/15\13/15---------------------------------|
F#|---------------------------------------------------------|
C#|---------------------------------------------------------|
G#|---------------------------------------------------------|
C#|---------------------------------------------------------|

[1:18]
D#|-----------------------------0-----------0-----------0---|
A#|-----------------------3-------------5-----------5-------|
F#|-0h2p0-------------------0-----5------5----5-------5-----|
C#|-------3-0h2---2-3---3-----3-----------------------------|
G#|-3-----------3-----3-----------3---3---3---3---3---------|
C#|---------------------------------------------------------|

(Courage...)               
D#|-------------------------15------------------------------|
A#|-15\13/15\13-15\13/15\13---------------------------------|
F#|---------------------------------------------------------|
C#|---------------------------------------------------------|
G#|---------------------------------------------------------|
C#|---------------------------------------------------------|

[1:24]
D#|---------------------------------------------------------|
A#|-5h6p5------------------------5h6p5----------------------|
F#|-------7-5h7-----0h5--2-------------7-5h7-----0h5--2-0---|
C#|-------------0----------0h5h7-------------0----------5---|
G#|---------------------------------------------------------|
C#|-0-------------0----0---0-----0-------------0----0---0---|
 Faithless...       
                                     
D#|-------------------------17------------------------------|
A#|-13/15\13/15-13/15\13/15---------------------------------|
F#|---------------------------------------------------------|
C#|---------------------------------------------------------|
G#|---------------------------------------------------------|
C#|---------------------------------------------------------|

[1:30]
D#|-----------------------------0-----------0-----------0---|
A#|-----------------------3-------------5-----------5-------|
F#|-0h2p0-------------------0-----5------5----5-------5-----|
C#|-------3-0h2---2-3---3-----3-----------------------------|
G#|-3-----------3-----3-----------3---3---3---3---3---------|
C#|---------------------------------------------------------|

(Disowns...)                                             
D#|-------------------------15------------------------------|
A#|-15\13/15\13-15\13/15\13---------------------------------|
F#|---------------------------------------------------------|
C#|---------------------------------------------------------|
G#|---------------------------------------------------------|
C#|---------------------------------------------------------|

[1:35]
|-5h6p5------------------------5h6p5----------------------|
|-------7-5h7-----0h5--2-------------7-5h7-----0h5--2-0---|
|-------------0----------0h5h7-------------0----------5---|
|---------------------------------------------------------|
|-0-------------0----0---0-----0-------------0----0---0---|
 (...while he still waits...)                              

D#|---------------------------------------------------------|
A#|---------------------------------------------------------|
F#|---------------------------------------------------------|
C#|---------------------------------------------------x-x-x-|
G#|---------------------------------------------------x-x-x-|
C#|---------------------------------------------------x-x-x-|

2nd Chorus: Distortion
Phrase 1: Played twice
[The second time phrase 1 is
played phrase 2 is played over it]
[1:41]
D#|--8-----3--3-----0-----3---|
A#|--11----6--5-----3-----3---|
F#|--10----5--5-----2-----5---|
C#|--8-----3--3-----0-----5---|
G#|--8-----3--3-----0-----3---|
C#|--8-----3--3-----0---------|

[Phrase 2]
[1:52]
D#|-----------------0-----3--|---------------------------|
A#|--11----8-/-10---3-----3--|---------------------------|
F#|-----------------2-----5--|---------------------------|
C#|--8-----5-/-7----0-----5--|-x1--0---------------------|
G#|-----------------0-----3--|-x1--0---------------------|
C#|-----------------0--------|-x1--0---------------------|
                       
[2:03](on the one beat)    
D#|---------------------------|
A#|---------------------------|
F#|-----7--7--7--7--7--7--7--7|
C#|---------------------------|
G#|-----5--5--5--5--5--5--5--5|
C#|---------------------------|


[Pre-Bridge]
(Detune and Touch Wah on Lead)
(Clean Electric w/ Acoustic Back on Rhythm)
[2:09]
D#|-----------------------------------------|     there is detune
A#|-----------------------------------------|     and touch wah
F#|-7---7---7---7---7---7---7---7-----------|  x4 on all the octaves
C#|-----------------------------------------|  x4 played in the
G#|-5---5---5---5---5---5---5---5-----------|     bridge, if I don't
C#|-----------------------------------------|     have my FX I bend
                                                  them a little to give
D#|----------------------------------|            it that feel and
A#|----------------------------------|            use a wah pedal
F#|----------------------------------|  x4
C#|----0---0---0---0---0---0-------0-|  x4
G#|---0---0---0---0---0---0-------0--|
C#|-8---3---5---0---1---5---875-0~~~-|

[2:32](3 Guitars)
D#|----------------------------------|
A#|----------------------------------|
F#|-7---7---7---7---7---7---7---7----|
C#|----------------------------------|
G#|-5---5---5---5---5---5---5---5----|
C#|----------------------------------|

(Cast aside...)
D#|-5---5---5---5---8---8---8---8----|
A#|(10)(10)(10)(10)(13)(13)(13)(13)--| <-these are probably
F#|-2---2---2---2---5---5---5---5----|   the right notes to
C#|----------------------------------|   play but who has
G#|----------------------------------|   3 guitars in their
C#|----------------------------------|   band? The octaves
                                         sound better live

D#|----------------------------------|
A#|----------------------------------|
F#|----------------------------------|
C#|----0---0---0---0---0---0-------0-|
G#|---0---0---0---0---0---0-------0--|
C#|-8---3---5---0---1---5---875-0~~~-|

[2:37](3 guitars)
D#|----------------------------------|
A#|----------------------------------|
F#|-7---7---7---7---7---7---7---7----|
C#|----------------------------------|
G#|-5---5---5---5---5---5---5---5----|
C#|----------------------------------|

(Disconnected)                 
D#|-10--10--10--10--10--10--10--10---|
A#|----------------------------------|
F#|-7---7---7---7---7---7---7---7----|
C#|----------------------------------|
G#|----------------------------------|
C#|----------------------------------|

D#|----------------------------------|
A#|----------------------------------|
F#|----------------------------------|
C#|----0---0---0---0---0---0-------0-|
G#|---0---0---0---0---0---0-------0--|
C#|-8---3---5---0---1---5---875-0~~~-|

[Bridge](Distortion)
(Lead has a fast chorus FX I think)
[2:43]
D#|----------------------------------------------------|
A#|----------------------------------------------------|
F#|----------------------------------------------------|
C#|--8---3---5---0---1---5---8-7-5--0-1-0--------------|
G#|--8---3---5---0---1---5---8-7-5--0-1-0--------------|
C#|--8---3---5---0---1---5---8-7-5--0-1-0--------------|

[2:49]
D#|----------------------------------------------------|
A#|----------------------------------------------------|
F#|----------------------------------------------------|
C#|--8---3---5---0---1---5---8-7-5--00000--------------|
G#|--8---3---5---0---1---5---8-7-5--00000--------------|
C#|--8---3---5---0---1---5---8-7-5--00000--------------|

D#|-/10-----------------/10---------10-----------------|
A#|-----13/15\13-10hb-7------------trem pick-----------|
F#|--------------------------------follows kick--------|
C#|--------------------------------and open D above----|
G#|----------------------------------------------------|
C#|----------------------------------------------------|

[2:54]
D#|----------------------------------------------------|
A#|----------------------------------------------------|
F#|----------------------------------------------------|
C#|--8---3---5---0---1---5---8-7-5--0-1-0--------------|
G#|--8---3---5---0---1---5---8-7-5--0-1-0--------------|
C#|--8---3---5---0---1---5---8-7-5--0-1-0--------------|

D#|-/10------------------------------------------------|
A#|--------13/15\13-10hb-----7-------------------------|
F#|----------------------------------------------------|
C#|----------------------------------------------------|
G#|----------------------------------------------------|
C#|----------------------------------------------------|

[3:00]
D#|----------------------------------------------------|
A#|----------------------------------------------------|
F#|----------------------------------------------------|
C#|--8---3---5---0---1---5---8-7-5--0-0----------------|
G#|--8---3---5---0---1---5---8-7-5--0-0----------------|
C#|--8---3---5---0---1---5---8-7-5--0-0----------------|

D#|-/10---------------------/14------------------------|
A#|--------13/15\13-10hb-------------------------------|
F#|----------------------------------------------------|
C#|----------------------------------------------------|
G#|----------------------------------------------------|
C#|----------------------------------------------------|

[3rd Chorus] (Distortion)
[Phrase 1] (Played twice)
[The second time phrase 1 is]
[played phrase 2 is played over it]

[3:06]
D#|--8-----3--3-----0-----3---|
A#|--11----6--5-----3-----3---|
F#|--10----5--5-----2-----5---|
C#|--8-----3--3-----0-----5---|
G#|--8-----3--3-----0-----3---|
C#|--8-----3--3-----0---------|

[Phrase 2]
[3:17]
D#|-----------------0-----3--|
A#|--11----8-/-10---3-----3--|
F#|-----------------2-----5--|
C#|--8-----5-/-7----0-----5--|
G#|-----------------0-----3--|
C#|-----------------0--------|

Solo Rhythm (Chorus): Distortion
Solo Lead: Distortion with a lot of reverb and light delay
There are several ways you could play this,
but I worked at a lot of the pieces using
several approaches and decided this way
was easiest for me

[3:28]
D#|---------------------------------------------------------|
A#|---------------------------------------------------------|
F#|----9----10v----10-9-------------9----10v-12-10-9--------|
C#|-10---10-----10------10v-10fbr-10---10-------------------|
G#|---------------------------------------------------------|
C#|---------------------------------------------------------|
              1 3 4 2

D#|---------------------------8-----------------------------|
A#|--------------------6-/-10----10-------------------------|
F#|------------------9--------------9*\7----9*fbr-----------|
C#|-10*-/-15\12----7---------------------10------10p7-------|
G#|--------------5-----------------------------------10p8---|
C#|---------------------------------------------------------|

D#|-------------------------13-15-fpbr15p13-----------------|
A#|--------------13--/13-15-----------------15p13---13------|
F#|-------10-/-14--------------------------------14---------|
C#|-----12--------------------------------------------------|
G#|---10----------------------------------------------------|
C#|-10------------------------------------------------------|

D#|----12-13v--12-13-12---------------12-13-15v-13-15fbrp13-|
A#|-13------------------13v-13*fbr-13-----------------------|
F#|---------------------------------------------------------|
C#|---------------------------------------------------------|
G#|---------------------------------------------------------|
C#|---------------------------------------------------------|

[3:44]
D#|--------|13h17p13----------------------------------------|
A#|-15v-/18|--------15p13--15p13h15p13\10h13p10-------------|
F#|--------|-------------14--------------------12-9h10h12p--|
C#|--------|------------------------------------------------|
G#|--------|------------------------------------------------|
C#|--------|------------------------------------------------|
         ^Long legato run, it isn't exact but it's close

D#|---------------------------------------------------------|
A#|---------------------------------------------------------|
F#|10p9h10p9\7----------------------------------------------|
C#|-----------10p8p7h8p7--7-----------7h8h10p8p7------------|
G#|---------------------10-10p8p7h8h10----------10p8p7\5----|
C#|---------------------------------------------------------|

D#|---------------------------------------------------------|
A#|---------------------------7*----------------------------|
F#|-7*fbr-7-5-----------------7*----------------------------|
C#|-----------7-5-3-5---------7*--whammy dive---------------|
G#|-------------------3-5fbr--------------------------------|
C#|---------------------------------------------------------|
       + + + +

[Outro]
(Minor variation from post bridge)
[3:50]
D#|----------------------------------------------------|
A#|----------------------------------------------------|
F#|----------------------------------------------------|
C#|--8---3---5---0---1---5---8-7-5--0-1-0--------------|
G#|--8---3---5---0---1---5---8-7-5--0-1-0--------------|
C#|--8---3---5---0---1---5---8-7-5--0-1-0--------------|

[3:56]
D#|----------------------------------------------------|
A#|----------------------------------------------------|
F#|----------------------------------------------------|
C#|--8---3---5---0---1---5---8-7-5--00000--------------|
G#|--8---3---5---0---1---5---8-7-5--00000--------------|
C#|--8---3---5---0---1---5---8-7-5--00000--------------|

D#|---------------------------------10-----------------|
A#|--------------------------------trem pick-----------|
F#|--------------------------------follows kick--------|
C#|--------------------------------and open D above----|
G#|----------------------------------------------------|
C#|----------------------------------------------------|

[4:01] 3 Guitars
D#|----------------------------------------------------|
A#|----------------------------------------------------|
F#|----------------------------------------------------|
C#|--8---3---5---0---1---5---8-7-5--0-1-0--------------|
G#|--8---3---5---0---1---5---8-7-5--0-1-0--------------|
C#|--8---3---5---0---1---5---8-7-5--0-1-0--------------|

D#|----------------------------------------------------|
A#|--15------13---10-11--------------------------------|
F#|--------------------------11------------------------|
C#|----------------------------------------------------|
G#|----------------------------------------------------|
C#|----------------------------------------------------|

D#|--11------15----hb17--------------------------------|
A#|--------------------------19------------------------|
F#|----------------------------------------------------|
C#|----------------------------------------------------|
G#|----------------------------------------------------|
C#|----------------------------------------------------|

[4:07] 3 Guitars
D#|----------------------------------------------------|
A#|----------------------------------------------------|
F#|----------------------------------------------------|
C#|--8---3---5---0---1---5---8-7-5--0-1-0--------------|
G#|--8---3---5---0---1---5---8-7-5--0-1-0--------------|
C#|--8---3---5---0---1---5---8-7-5--0-1-0--------------|
                                                   
D#|--------------------------13------------------------|
A#|--15------13---10-11--------------------------------|
F#|----------------------------------------------------|
C#|----------------------------------------------------|
G#|----------------------------------------------------|
C#|----------------------------------------------------|
                                                   
D#|--11------15----hb17------22------------------------|
A#|----------------------------------------------------|
F#|----------------------------------------------------|
C#|----------------------------------------------------|
G#|----------------------------------------------------|
C#|----------------------------------------------------|

************************************
| +   palm mute
| v   vibrato
| /   slide up
| \   slide down
| h   hammer-on
| p   pull-off
| ~   hold note / let ring
| *   harmonic
| x   mute note
| b   bend (followed by the pitch to bend to)
| hb  half bend (1 fret)
| fb  full bend (2 frets)
| pb  pre-bend (followed by pitch to bend to)
| br  bend release (followed by pitch to bend to)
| pbr pre-bend release
| brb bend release bend
| hbr half bend release
| fbr full bend release
| /// pick scrape from bridge to neck
************************************
Suggest correction
comments
print report bad tab
9 comments total. Showing first comments.
+1 reply
captsaw 10 Nov 17, 2010 09:45 PM

For the intro where you have

--------------------------------------------------------|
-5h6p5------------------------5h6p5---------------------|
-------7-5h7-----2h4--2-------------7-5h7-----2h4--2-0~-|
-------------0----------0h5h7-------------0----------5~-|
--------------------------------------------------------|
-0-------------0----0---0-----0-------------0----0---0--|

It may be my ears, but I'm thinking the 2 to 4 hammer-on on the third string should be a 2 to 5. Again, it could just be my ears like that sound better. The rest is spot on, can't wait for the lead parts. Good job.

0 reply
Angrypoonani 56 Nov 18, 2010 12:43 AM

You're absolutely correct, that is actually the way I play it but what I did while learning it was play it on the d string as 7h10 and I did a last minute edit on the tab to change it to be played on the g string (flows much better into the following riff). Thank you for pointing it out

the correct way to play it is:

--------------------------------------------------------|
-5h6p5------------------------5h6p5---------------------|
-------7-5h7-----2h5--2-------------7-5h7-----2h5--2-0~-|
-------------0----------0h5h7-------------0----------5~-|
--------------------------------------------------------|
-0-------------0----0---0-----0-------------0----0---0--|

0 reply
Angrypoonani 56 Nov 19, 2010 01:19 PM

Tab has been completed and updated! YAY! Let me know if you have any corrections or suggestions, I do answer emails and comments

guest
You may want to rate the tab now too:
select rating
Wanna post a correction for this tab? Suggest correction