Oops, an error
Loading. Please wait.

I Know It Hurts Tab

version 1
version 1

Whole song

Interactive

35,552 views 12 this week
7 commentsread comments
1 2 3 4 5
x 12
add to favorites
launch autoscroll
font size
0
reset
how to read this tab
guitar tuner
×
Best way to learn
"I Know It Hurts"
Autoscroll
slow
fast
+/-
esc
set tempo
stop
Difficulty
intermediate
Tuning: Bb|-Ab|-Db|-Gb|-Bb|-eb

[Intro]
eb|-----------------------------------------------|
Bb|-----------------------------------------------|
Gb|----14/16-16-16-16-16--17/16---------14/16-----|
Db|-----------------------------------------------|(x2)
Ab|----12/14-14-14-14-14--15/14---------12/14-----|
Bb|-------------------------------0--0---------0--|

eb|-----------------------------------|---------------------------------|
Bb|------------------------------10---|---------------------------------|
Gb|------------------------------12b14|---------------------------------|
Db|-----------------------------------|---------------------------------|
Ab|---4/5-5-5-5-5--7/5--5-5-----------|----4/5-5-5-5-5--7/5--5-5------9-|
Bb|---2/3-3-3-3-3--5/3--3-3-----------|----2/3-3-3-3-3--5/3--3-3------7-|

eb|-----------------------------------------------|
Bb|-----------------------------------------------|
Gb|----14/16-16-16-16-16--17/16---------14/16-----|
Db|-----------------------------------------------|(x2)
Ab|----12/14-14-14-14-14--15/14---------12/14-----|
Bb|-------------------------------0--0---------0--|

eb|-----------------------------------|-------------------------------|
Bb|------------------------------10---|-------------------------------|
Gb|------------------------------12b14|-------------------------------|
Db|-----------------------------------|-------------------------------|
Ab|---4/5-5-5-5-5--7/5--5-5-----------|----4/5-5-5-5------------------|
Bb|---2/3-3-3-3-3--5/3--3-3-----------|----2/3-3-3-3---5b7------------|

[Verse]
eb|-----------------(0)----------------(0)--|
Bb|-----------------------------------------|
Gb|------------------9~-----------------9~--|
Db|------11---12-9----------11---12-9-------|
Ab|----9----9-----9-------9----9-----9------|
Bb|--0------------------0-------------------|

eb|---------------(0)----------------(0)--|
Bb|------7------------------7-------------|
Gb|----------9-7---9~-----------9-7---9~--|
Db|----7---7----7---------7---7----7------|
Ab|--5------------------5-----------------|
Bb|---------------------------------------|

(x2)
eb|-------------------------------------------|
Bb|----------5--------------------------------|
Gb|------6----6--6~---------12---12--12h14-12-|
Db|----7---7---7---------12----12-------------|
Ab|--0----------------10----------------------|
Bb|-------------------------------------------|

eb|---------------------------------------------|
Bb|---------------------------------------------|
Gb|--------------------9~---------------------9~|
Db|--------11---12-9--------------11---12-9-----|
Ab|------9----9-----9-----------9----9-----9----|
Bb|----0----------------------0-----------------|

eb|------------------------------------------|
Bb|----------5-------------------------------|
Gb|------6----6--6~-------12-----------------|
Db|----7---7---7----------12-----------------|
Ab|--0--------------------10-----------------|
Bb|------------------------------------------|

[Chorus]
eb|------------------------------------------------------------------|
Bb|------------------------------------------------------------------|
Gb|--4--4--4-4-4--4--4-4------12--12--12-12-12--12-12-12-------------|
Db|--4--4--4-4-4--4--4-4------12--12--12-12-12--12-12-12-------------|
Ab|--2--2--2-2-2--2--2-2------10--10--10-10-10--10-10-10-------------|
Bb|--0--0--0-0-0--0--0-0---------------------------------------------|

eb|-----------------------------------|---------------------------------|
Bb|------------------------------10---|---------------------------------|
Gb|------------------------------12b14|---------------------------------|
Db|-----------------------------------|---------------------------------|
Ab|---4/5-5-5-5-5--7/5--5-5-----------|----4/5-5-5-5-5--7/5--5-5------9-|
Bb|---2/3-3-3-3-3--5/3--3-3-----------|----2/3-3-3-3-3--5/3--3-3------7-|

eb|------------------------------------------------------------------|
Bb|------------------------------------------------------------------|
Gb|--4--4--4-4-4--4--4-4------12--12--12-12-12--12-12-12-------------|
Db|--4--4--4-4-4--4--4-4------12--12--12-12-12--12-12-12-------------|
Ab|--2--2--2-2-2--2--2-2------10--10--10-10-10--10-10-10-------------|
Bb|--0--0--0-0-0--0--0-0---------------------------------------------|

eb|-----------------------------------|-------------------------------|
Bb|------------------------------10---|-------------------------------|
Gb|------------------------------12b14|-------------------------------|
Db|-----------------------------------|-------------------------------|
Ab|---4/5-5-5-5-5--7/5--5-5-----------|----4/5-5-5-5------------------|
Bb|---2/3-3-3-3-3--5/3--3-3-----------|----2/3-3-3-3---5b7------------|

[Lead]
eb|------------------------------------------------------------------|
Bb|-----------------------------------10-----------------------------|
Gb|--------7-9-7--9b11b9b11------9b11----9b11b9----------------------|
Db|------9-----------------------------------------------------------|
Ab|------------------------------------------------------------------|
Bb|------------------------------------------------------------------|

[Verse]
eb|-----------------(0)----------------(0)--|
Bb|-----------------------------------------|
Gb|------------------9~-----------------9~--|
Db|------11---12-9----------11---12-9-------|
Ab|----9----9-----9-------9----9-----9------|
Bb|--0------------------0-------------------|

eb|---------------(0)----------------(0)--|
Bb|------7------------------7-------------|
Gb|----------9-7---9~-----------9-7---9~--|
Db|----7---7----7---------7---7----7------|
Ab|--5------------------5-----------------|
Bb|---------------------------------------|

(x2)
eb|-------------------------------------------|
Bb|----------5--------------------------------|
Gb|------6----6--6~---------12---12--12h14-12-|
Db|----7---7---7---------12----12-------------|
Ab|--0----------------10----------------------|
Bb|-------------------------------------------|

eb|---------------------------------------------|
Bb|---------------------------------------------|
Gb|--------------------9~---------------------9~|
Db|--------11---12-9--------------11---12-9-----|
Ab|------9----9-----9-----------9----9-----9----|
Bb|----0----------------------0-----------------|

eb|------------------------------------------|
Bb|----------5-------------------------------|
Gb|------6----6--6~-------12-----------------|
Db|----7---7---7----------12-----------------|
Ab|--0--------------------10-----------------|
Bb|------------------------------------------|

[Chorus]
eb|------------------------------------------------------------------|
Bb|------------------------------------------------------------------|
Gb|--4--4--4-4-4--4--4-4------12--12--12-12-12--12-12-12-------------|
Db|--4--4--4-4-4--4--4-4------12--12--12-12-12--12-12-12-------------|
Ab|--2--2--2-2-2--2--2-2------10--10--10-10-10--10-10-10-------------|
Bb|--0--0--0-0-0--0--0-0---------------------------------------------|

eb|-----------------------------------|---------------------------------|
Bb|------------------------------10---|---------------------------------|
Gb|------------------------------12b14|---------------------------------|
Db|-----------------------------------|---------------------------------|
Ab|---4/5-5-5-5-5--7/5--5-5-----------|----4/5-5-5-5-5--7/5--5-5------9-|
Bb|---2/3-3-3-3-3--5/3--3-3-----------|----2/3-3-3-3-3--5/3--3-3------7-|

eb|------------------------------------------------------------------|
Bb|------------------------------------------------------------------|
Gb|--4--4--4-4-4--4--4-4------12--12--12-12-12--12-12-12-------------|
Db|--4--4--4-4-4--4--4-4------12--12--12-12-12--12-12-12-------------|
Ab|--2--2--2-2-2--2--2-2------10--10--10-10-10--10-10-10-------------|
Bb|--0--0--0-0-0--0--0-0---------------------------------------------|

eb|-----------------------------------|-------------------------------|
Bb|------------------------------10---|-------------------------------|
Gb|------------------------------12b14|-------------------------------|
Db|-----------------------------------|-------------------------------|
Ab|---4/5-5-5-5-5--7/5--5-5-----------|----4/5-5-5-5------------------|
Bb|---2/3-3-3-3-3--5/3--3-3-----------|----2/3-3-3-3---5b7------------|

[Chorus ends with]
eb|-----------------------------------|
Bb|-----------------------------------|
Gb|-----------------------------------|
Db|-----------------------------------|
Ab|---4/5-5-5-5-5--7/5----------------|
Bb|---2/3-3-3-3-3--5/3--0-0-----------|

[Bridge]
eb|------------------------------------------|
Bb|-----5------------------------------------|
Gb|-----5------------------------------------|
Db|-----x------------------------------------| (x4)
Ab|-----3-------------------2b3-2-0----------|
Bb|----(0)--0-1-2-3-4-0-2-3------------------|

eb|------------|--------|-------|-------|
Bb|------------|--------|-------|-------|
Gb|------12----|---11---|---7---|---6---|
Db|------12----|---12---|---7---|---7---|(x2)
Ab|------10----|---9----|---5---|---4---|
Bb|------------|--------|-------|-------|

eb|------------|---------|
Bb|------------|---------|
Gb|------12----|---11~---|
Db|------12----|---12~---|
Ab|------10----|---9~----|
Bb|------------|---------|

eb|------------------------------------|--|--------------------|
Bb|------------------------------------|--|--------------------|
Gb|------------------------------------|--|--------------------|
Db|------------------------------------|x3|--------------------|
Ab|----0h2-2-2-2---3p2-----0h2---------|--|-0h2-2-2-2-3p2-2----|
Bb|--------------------0-0-----0-------|--|--------------------|

[Chorus]
eb|------------------------------------------------------------------|
Bb|------------------------------------------------------------------|
Gb|--4--4--4-4-4--4--4-4------12--12--12-12-12--12-12-12-------------|
Db|--4--4--4-4-4--4--4-4------12--12--12-12-12--12-12-12-------------|
Ab|--2--2--2-2-2--2--2-2------10--10--10-10-10--10-10-10-------------|
Bb|--0--0--0-0-0--0--0-0---------------------------------------------|

eb|-----------------------------------|---------------------------------|
Bb|------------------------------10---|---------------------------------|
Gb|------------------------------12b14|---------------------------------|
Db|-----------------------------------|---------------------------------|
Ab|---4/5-5-5-5-5--7/5--5-5-----------|----4/5-5-5-5-5--7/5--5-5------9-|
Bb|---2/3-3-3-3-3--5/3--3-3-----------|----2/3-3-3-3-3--5/3--3-3------7-|

eb|------------------------------------------------------------------|
Bb|------------------------------------------------------------------|
Gb|--4--4--4-4-4--4--4-4------12--12--12-12-12--12-12-12-------------|
Db|--4--4--4-4-4--4--4-4------12--12--12-12-12--12-12-12-------------|
Ab|--2--2--2-2-2--2--2-2------10--10--10-10-10--10-10-10-------------|
Bb|--0--0--0-0-0--0--0-0---------------------------------------------|

eb|-----------------------------------|-------------------------------|
Bb|------------------------------10---|-------------------------------|
Gb|------------------------------12b14|-------------------------------|
Db|-----------------------------------|-------------------------------|
Ab|---4/5-5-5-5-5--7/5--5-5-----------|----4/5-5-5-5------------------|
Bb|---2/3-3-3-3-3--5/3--3-3-----------|----2/3-3-3-3---5b7------------|

[Solo]
eb|---19-17-19-17-14-----19-17-19-17-14----|
Bb|----------------------------------------|
Gb|----------------------------------------|
Db|----------------------------------------|
Ab|----------------------------------------|
Bb|----------------------------------------|

eb|-22-17-22-17-14-----19-17-19-17-14-----/15-----------|
Bb|---------------------------------------/15-----------|
Gb|-----------------------------------------------------|
Db|-----------------------------------------------------|
Ab|-----------------------------------------------------|
Bb|-----------------------------------------------------|

eb|---------------14--17-------------------------------------------------|
Bb|------15-17b19--------17b19b17--15------------------------------------|
Gb|--/16--------------------------------------------9/11--7--------------|
Db|-----------------------------------------7-9p7------------------------|
Ab|--------------------------------------/9-------9----------------------|
Bb|----------------------------------------------------------------------|

eb|---7/10---------7/5-----------------------------------------------|
Bb|---------10/7--------7/5-----3p0-3-5--3~--------------------------|
Gb|------------------------------------------------------------------|
Db|------------------------------------------------------------------|
Ab|------------------------------------------------------------------|
Bb|------------------------------------------------------------------|

eb|--------------------------------------14h15h17p15p14-|
Bb|-----------------------------15h17h19----------------|
Gb|--------------------14h16h18-------------------------|
Db|----------12h14h16-----------------------------------|
Ab|-12h14h16--------------------------------------------|
Bb|-----------------------------------------------------|

eb|-------------------------------------|
Bb|--17p15p14-14h15h17p15p14------------|
Gb|--------------------------16p14p12---|
Db|-------------------------------------|
Ab|-------------------------------------|
Bb|-------------------------------------|

eb|------------------------------------------------------------------|
Bb|------------------------------------------------------------------|
Gb|--16-14-12-11----------14-12-11-----------------------------------|
Db|---------------14-12------------14-12-11----11-12~----------------|
Ab|-----------------------------------------12-----------------------|
Bb|------------------------------------------------------------------|

eb|----------------17------------22b24-22-19h22p19---19~--|
Bb|-------15-17b19----17b19-15---------------------22-----|
Gb|---/16-------------------------------------------------|
Db|-------------------------------------------------------|
Ab|-------------------------------------------------------|
Bb|-------------------------------------------------------|

eb|---19/17---------------------|
Bb|---------19/17-15------------|
Gb|------------------14---------|
Db|-----------------------------|
Ab|-----------------------------|
Bb|-----------------------------|

eb|------------------------|------------------------------------------|
Bb|------------------------|------------------------------------------|
Gb|---4-4-4-4--4-4-4-4-----|-----4-4-4-4------------------------------|
Db|---4-4-4-4--4-4-4-4-----|-----4-4-4-4------------------------------|
Ab|---2-2-2-2--2-2-2-2-----|-----2-2-2-2------------------------------|
Bb|---0-0-0-0--0-0-0-0-----|-----0-0-0-0------0~----------------------|


************************************

| b    Bend
| /    Slide up
| (n)  Ghost note
| ~    Vibrato
| h    Hammer-on
| x    Dead note
| p    Pull-off

************************************
Suggest correction
comments
print report bad tab
7 comments total. Showing first comments.
+3 reply
JimBonJovi 791 Oct 28, 2010 07:01 AM

Thank you unregistered.

+1 reply
jjhand 13,706 Oct 28, 2010 07:44 AM

Most of it looks good, alas you might want to ask a moderator to add your profile name to it though if you mistakenly left it off.

0 reply
halakok 31 Oct 29, 2010 01:41 AM

yeah,i left it off,because i wasn't registered.So now i made my profile.you can check my video on youtube as i'm playing it.

guest
You may want to rate the tab now too:
select rating
Wanna post a correction for this tab? Suggest correction