Oops, an error
Loading. Please wait.

In Loving Memory Chords

version 2
version 2

Whole song

Interactive

15,995 views 45 this week
1 commentread comment
1 2 3 4 5
please rate
add to favorites
launch autoscroll
font size
0
reset
transpose
0
reset
display chords
guitar tuner
Autoscroll
slow
fast
+/-
esc
set tempo
stop
Help us to improve Ultimate-Guitar.com Take our survey!
×
Alter Bridge
In Loving Memory
One Day Remains
2004
Submitted by: paramore_fans@yahoo.com

Key: F#

Tuning: Standard EADGBe

Chords used:
C# -   x46664
B -    x24442
F# -   244322
Ebm -  x68876
C#/F - 143xxx
D -    xx0232


Intro:
      C#            B             F#           C#            B
e|-----------|-------------|-------------|-----------|---------------|
B|-6---6/7\6-|-4---4/5\4---|-------------|-2---2h4p2-|-4-----2h4p2-4-|
G|-----------|-----------3-|-----1h3p1---|-----------|---4-----------|
D|-----------|-------------|-4---------4-|-----------|---------------|
A|---4-------|---2---------|-------------|---4-------|-----2-------2-|
E|-----------|-------------|---2---------|-----------|---------------|

    C#/F             F#
e|-------|-6---9-7-6-6----7-6-4--|
B|-6-----|-----------------------|
G|-------|-----------------------|
D|-3-----|-4--4---------4--------|
A|-------|-----------------------|
E|-------|-----------------------|

      C#            B             F#           C#            B
e|-----------|-------------|-------------|-----------|---------------|
B|-6---6/7\6-|-4---4/5\4---|-------------|-2---2h4p2-|-4-----2h4p2-4-|
G|-----------|-----------3-|-----1h3p1---|-----------|---4-----------|
D|-----------|-------------|-4---------4-|-----------|---------------|
A|---4-------|---2---------|-------------|---4-------|-----2-------2-|
E|-----------|-------------|---2---------|-----------|---------------|

    C#/F          F#
e|-------|--------6-----9--16-|
B|-6-----|-7----7---7------14-|
G|-------|----6-------6----13-|
D|-3-----|-4------------------|
A|-------|--------------------|
E|-------|--------------------|


Verse 1:
C#                      Ebm
  Thanks for all you've done
     C#
i've missed you for so long
  B
i can't believe you're gone
C#                  Ebm
  you still live in me
  C#
i feel you in the wind
    B
you guide me constantly
F#
  i never knew what it
           Ebm
was to be alone no
               C#
cause you were always there
                B
for me you were always waiting
F#
  but now i come home
                Ebm
and i miss your face so
 C#
smiling down on me
  B
i close my eyes to see


Chorus:
      F#             C#
and i know, you're a part of me
             Ebm        B
and its your song, that sets me free
          F#             C#
i sing it while i feel i cant go on
         Ebm             B
i sing tonight, cause it comforts me


Interlude: F#-Ebm-C#-B-


verse 2:
F#
  i carry the thing that
              Ebm
reminds me of you
   C#
in loving memory of
    B
the one that was so true
F#                              Ebm
  you were as kind as you could be
    C#
and even though you're gone
          B
you still mean the world to me
F#
  i never knew what it
           Ebm
was to be alone no
               C#
cause you were always there
                B
for me you were always waiting
F#
  but now i come home and
             Ebm
it's not the same no
         C#
it feels empty and alone
  B
i can't believe you're gone


(Repeat Chorus)


Bridge :
C#            B                 F#
  i'm glad he set you free from sorrow
               C#              B
but i'll still love you more tomorrow
                        C#  F#
and you'll be here with me still
C#        B                F#
  all you did you did with feeling
        C#             B
and you always found a meaning
        C#     F#
and you always will
B       C#     F#
and you always will
B       C#     D   C# B
and you always will


Interlude: F#--Ebm--C#--B-- x2


(Repeat Chorus)
(Repeat Intro)
Suggest correction
Give kudos to tab author, rate the tab!
1 2 3 4 5
comments
print report bad tab
1 comment total.
0 reply
Heavy-MatIll 41 wrote on September 14 2014, 10:48 am

Clearly wrong. The chords are totally wrong, no music understanding at all, better check other tabs around here in the chords section to alter bridge in lvoing memroy

guest
You may want to rate the tab now too:
select rating
Please do not post tabs as comments. Select "correction" instead!