Oops, an error
Loading. Please wait.

Island Of Fools tab

version 1
version 1

Whole song

Interactive

2,302 views 30 this week
no commentswrite comment
1 2 3 4 5
x 5
add to favorites
×
Save as Personal and add changes to this tab that will be seen only by you. Learn more ›
×
You can save this tab as Personal to edit and correct it or add notes. All changes will be seen only by you. Learn more »
launch autoscroll
font size
0
reset
how to read this tab
guitar tuner
edit
Autoscroll
slow
fast
+/-
esc
set tempo
stop
I don't have guitar/tab pro so I did this all by ear, probably not 100% correct but hopefully it's alright! :)

[Intro]

D|---------------------------------| D|-------------------------------|
A|---------------------------------| A|-------------------------------|
F|---------------------------------| F|-----------------------9p7-0-0-| 
C|-7(several times)-10-10-10-9-9-9-| C|-7(several times)-10h12--------| 
G|---------------------------------| G|-------------------------------|
C|---------------------------------| C|-------------------------------| 

D|------------|              D|-------------------------------------------10b(full)-|
A|------------|              A|-8b/10-8b/10-8b/10-------8b/10-8b/10-8b/10-----------|
F|------------|(Guitar II    F|-------------------7b-5~-----------------------------|
C|------------|plays this    C|-----------------------------------------------------|
G|------------|throughout)   G|-----------------------------------------------------|
C|-7~--2~--3~-|              C|-----------------------------------------------------|


[Main riff] I think I may be missing something with this, so don't take it as exactly correct.

D|--------------------------------------|     D|--------------------|
A|--------------------------------------|     A|--------------------|
F|--------------------------------------|     F|--------------------|
C|-0-1-0-1\2----------------3p0---------|     C|-----------5-4-3-2~-|(On 2nd time end of this)
G|-0-1-0-1\2-----------0h3h5---5p3------|     G|------0h3h5---------|
C|-0-1-0-1\2-(x4)-0h3h5-----------5p3p0-|(x2) C|-0h3h5--------------|

[Verse]

D|----------------------------------------|     D|----------------------------|
A|------5------------------3--------------|     A|----------------------------|
F|------4(x4)--------------2(x4)----------|     F|----------------------------|(Missing some parts from this
C|-2---------2PM------0---------3---------|     C|-2------0-------3-----------|bit, will try and figure out)
G|-2---------2PM------0---------3---------|     G|-2------0-------3-----------|
C|-2(x4)-----2PM(x10)-0(x4)-----3(X3)/15b-|(x2) C|-2(x15)-0-(x8)--3(x8)-------|


[Pre-Chorus]

D|------------------------|
A|------------------------|
F|------------------------|
C|-0----0-2-3-3----3-5-10/|
G|-0----------3-----------|
C|-0(x4)------3(x4)-------|

[Chorus]                                       
                                            
D|--------------------------|                      
A|--------------------------|                    
F|--------------------------|       (Guitar II repeats intro part)      
C|-7------2-----3-----5-----|                    
G|-7------2-----3-----5-----|                        
C|-7(x10)-2(x5)-3(x8)-5(x8)-|                       


[Bridge]

D|-----------------------------------------------------------------------------------|
A|-----------------------------------------------------------------------------------|
F|-----------------------------------------------------------------------------------|
C|-----------------------------------------------------------------------------------|
G|-----------------------------------------------------------------------------------|
C|-0h2-2-2-2-2-3p2-0h2~--6-6-6-6-6-7p6-0h6--6-7-9-10-9-7--14-14-14-14-14-15p14-12h14-|

[Myles Solo] Tried my best with this :P

D|----------------4p0-5p0-7p0-8p0-7p0-5p0-12p10--10-10h12h13/14-19-22b-22-19-19b-|
A|-10b(full)-8--8------------------------------12--12------------------------18b-|
F|------------9~-----------------------------------------------------------------|
C|-------------------------------------------------------------------------------|
G|-------------------------------------------------------------------------------|
C|-------------------------------------------------------------------------------|

D|-16p0-17p0-19p0-20p0-19p0-17p0--24-22-19-22-20-19-20-19-17-19-17-16-16-19-16-17~-|
A|---------------------------------------------------------------------------------|
F|---------------------------------------------------------------------------------|
C|---------------------------------------------------------------------------------|
G|---------------------------------------------------------------------------------|
C|---------------------------------------------------------------------------------|

[Bridge]

D|-------------------------------------|   D|-------------------|
A|-------------------------------------|   A|-------------------|
F|-------------------------------------|   F|-14-16-17-19-17-16-|
C|-3-----2-----5-----3-----7-----5-----|   C|-------------------|
G|-3-----2-----5-----3-----7-----5-----|   G|-12-14-15-17-15-14-|
C|-3(x5)-2(x5)-5(x5)-3(x5)-7(x5)-5(x5)-|   C|-------------------|

[Outro] Just repeat the intro then end on this:

D|---------|
A|---------|
F|---------|
C|-2-2-2-7\|
G|-2-2-2-7\|
C|-2-2-2-7\|

Sorry I don't have Tremonti's solo as well, I am unfortunately not a God like him and Myles are.
But will update if something is figured out! ^-^

************************************

| x   Dead note
| g   Grace note
| (n) Ghost note
| h   Hammer-on
| p   Pull-off
| r   Release
| >   Accented note
| t   Tapping
| b   Bend
| br  Bend release
| pb  Pre-bend
| pbr Pre-bend release
| /   Slide up
| \   Slide down
| ~   Vibrato
| s   Slap
| P   Pop
| PM  Palm mute
| TR  Trill
| N   Tremolo

************************************

            
            
Suggest correction
Creating personal tab
Creating personal tab
You can edit any tab online and save it as your Personal.

You can edit, replace or remove any tab part or add personal notes – all changes will be seen only by you.

Personal tabs can be accessed anytime from any device, even offline.
Learn more »
comments
print report bad tab
guest
You may want to rate the tab now too:
select rating
Wanna post a correction for this tab? Suggest correction