Oops, an error
Loading. Please wait.

Life Must Go On Tab

version 1
version 1

Whole song

Interactive

22,642 views 24 this week
5 commentsread comments
1 2 3 4 5
accurate
x 8
add to favorites
launch autoscroll
font size
0
reset
how to read this tab
guitar tuner
Autoscroll
slow
fast
+/-
esc
set tempo
stop
Help us to improve Ultimate-Guitar.com Take our survey!
×
Author
Dimonaft 481
Song: Life must go on
Band: Alter Bridge
Album: Alter Bridge III

--------------------------------------------------------------------
Tuning: DDADAD (Like tuning in the song "Open Your eyes")


Now intro should be correct!)
Intro(Clean)
Play this riff 2 times
D|--------2-2h4---4h5----------------------------------0----------------0--|
D|----0h2----------------------------------------------0----------------0--|
A|----------------------4----4-4h5---7p5---2---4-4h5--------0---4-4h5------|
D|--0-----------0----------------------------------------------------------|
A|--------------------4---4--------4-----2---2-------2----0---0-------0----|
D|-------------------------------------------------------------------------|

D-----------0----------|--------------------|------------------|
D-------------0--------|--0----5------------|---------12~------|
A---0-----------4------|---0-----4h5p4p0----|---------0--------|
D-----4-----------4----|----0-----------5/7-|---------0--------|
A-2-----2--------------|--------------------|---------0--------|
D----------------------|5-----5-------------|---------0--------|         

Play this riff 2 times
D|-----|--------------------------------------------------------------------|
D|-----|--------------------------------------------------------------------|
A|-----|-10-10-10-10-10-9-9-9-9-9--7-9-9-9-9-9--9-7-7-7-7-7-----------------|
D|-5-7-|-x--x--x--x--x-/x-x-x-x-x--x/x-x-x-x-x--x/x-x-x-x-x-7-7-7-7-7-7-7-7-|
A|-5-7-|-10-10-10-10-10-9-9-9-9-9--7-9-9-9-9-9--9-7-7-7-7-7-7-7-7-7-7-7-7-7-|
D|-5-7-|-0--0--0--0--0--0-0-0-0-0--0-0-0-0-0-0--0-0-0-0-0-0-7-7-7-7-7-7-7-7-|

Verce Chords(Clean)
            1:05
D|--0-5-7-|-0-0-0-0-0-0---|
D|--0-5-7-|-0-0-0-0-0-0---|
A|--0-5-7-|-7-9-9-9-9-9---|
D|--0-5-7-|-x/x-x-x-x-x---|
A|--0-5-7-|-7-9-9-9-9-9---|
D|--0-5-7-|-0-0-0-0-0-0---|

Chorus Chords
D|-------------------|-----------------------|
D|-------------------|-----------------------|
A|-------------------|-----------------------|
D|---0---7---9---5---|---0---7---9---7---5---|
A|---0---7---9---5---|---0---7---9---7---5---|
D|---0---7---9---5---|---0---7---9---7---5---|

Post-Chorus
D|------------------------|
D|------------------------|
A|--5b7---8b9-8b9-8b9-7---|
D|------------------------|
A|------------------------|
D|------------------------|

Bridge
2:37-3:17
Play this riff 2 times
D|-------------------------------------------------------------------------|
D|-------------------------------------------------------------------------|
A|-------------------------------------------------------------------------|
D|---9-9-9-9--x-x-x-x--5-5-5-5-5-5-5-5--0-0-0-0-0-0-0-0--7-7-7-7-7-7-7-7---|
A|---9-9-9-9--x-x-x-x--5-5-5-5-5-5-5-5--0-0-0-0-0-0-0-0--7-7-7-7-7-7-7-7---|
D|---9-9-9-9--x-x-x-x--5-5-5-5-5-5-5-5--0-0-0-0-0-0-0-0--7-7-7-7-7-7-7-7---|

D|--------2-2h4---4h5----------------------------------0----------------0--|
D|----0h2------------------------------------------------------------------|
A|----------------------4----4-4h5---7p5---2---4-4h5--------0---4-4h5------|
D|--0-----------0----------------------------------------------------------|
A|--------------------4---4--------4-----2---2-------2----0---0-------0----|
D|-------------------------------------------------------------------------|

D|--------2-2h4---4h5----------------------------------0----------------0--|
D|----0h2------------------------------------------------------------------|
A|----------------------4----4-4h5---7p5---2---4-4h5--------0---4-4h5------|
D|--0-----------0----------------------------------------------------------|
A|--------------------4---4--------4-----2---2-------2----0---0-------0----|
D|-------------------------------------------------------------------------|


4:00-4:17
1 Guitar(x2)
D|-------------------|
D|-------------------|
A|-------------------|
D|---0---9---5---7---|
A|---0---9---5---7---|
D|---0---9---5---7---|
                  \Second time let ring this chord!
2 Guitar
D|----------------------------------------------------------|
D|----------11-------12-11--11--------11-------12-11---11---|
A|---/10--10--12-10-------12-----10-10--12-10--------12-----|
D|----------------------------------------------------------|
A|----------------------------------------------------------|
D|----------------------------------------------------------|

D|------------------------------------------------------------|
D|----------11-12-14---19b--17p15h17--17p15h17b19r17--12-11---|
A|--9-10-12---------------------------------------------------|
D|------------------------------------------------------------|
A|------------------------------------------------------------|
D|------------------------------------------------------------|

D|--------------------------------------------------------|
D|----------11-------12-11--11--------11-------17-12-14---|
A|---/10--10--12-10-------12-----10-10--12-10-------------|
D|--------------------------------------------------------|
A|--------------------------------------------------------|
D|--------------------------------------------------------|


D|--/19b20r19---19-17-16---17-16-14------------------|
D|------------------------------------16-15-14-------|
A|---------------------------------------------12~---|
D|---------------------------------------------------|
A|---------------------------------------------------|
D|---------------------------------------------------|
Suggest correction
What's this?
You can suggest a correction to this tab. Community and Mods will review your correction and vote to approve or reject it.
comments
print report bad tab
5 comments total. Showing first comments. show 2 bad comments
0 reply
Dimonaft 481 wrote on November 14 2010, 03:56 am

I'll try to do this part right later!

guest
You may want to rate the tab now too:
select rating
Please do not post tabs as comments. Select "correction" instead!