Oops, an error
Loading. Please wait.

Life Must Go On Tab

version 2
version 2

Whole song

Interactive

29,329 views 30 this week
9 commentsread comments
1 2 3 4 5
x 17
add to favorites
launch autoscroll
font size
0
reset
how to read this tab
guitar tuner
×
Best way to learn
"Life Must Go On"
Autoscroll
slow
fast
+/-
esc
set tempo
stop
Guitar Tuning  : DADADD

[Intro]
D|--------------------------------------------------------------------------|
D|---------2-2h4---4h5-----------------2p0---------------0----------------0-|
A|---4h5------------------0---4-4h5-----------0--4-4h5---0----0---4-4h5---0-|
D|-0-----0-------0----------------------------------------------------------|
A|----------------------4---4--------0--------------------------------------|
D|------------------------------------------5---5------5----4---4-------4---|

D|--------------------------------------------------------------------------|
D|---------2-2h4---4h5-----------------2p0---------------0----------------0-|
A|---4h5------------------0---4-4h5-----------0--4-4h5---0----0---4-4h5-----|
D|-0-----0-------0----------------------------------------------------------|
A|----------------------4---4--------0--------------------------------------|
D|------------------------------------------5---5------5----4---4-------4---|

D|-------0------------------------------------------|
D|---------0-----------------5------------------0~--|
A|---0-------4---------0-------4h5p4p0----------0~--|
D|-------------4-----0---0-------------5/7~-/12-12~-|
A|-2---2----------------------------------------0~--|
D|----------------/5-------5--------------------0~--|

[Pre-Verse]
D|----------------------------------------------------------|
D|----------------------------------------------------------|
A|----1010----10/9------------------------------------------|
D|-00-x-x--00-x--x--000-7/9--009/11--0007-7777--7777-7777/9-|
A|-00-1010-00-10/9--000-7/9--00x-----0004-4444--0004-444x-x-|
D|-00-0-0--00-0--0--000-7/9--009/11--000--------000-----7/9-|

D|-----------------------------------------------------|
D|-----------------------------------------------------|
A|----1010----10/9-------------------------------------|
D|-00-x-x--00-x--x--000-7/9--009/11--0007-7777--777-7~-|
A|-00-1010-00-10/9--000-7/9--00x-----0004-4444--000-4~-|
D|-00-0-0--00-0--0--000-7/9--009/11--000--------000----|

[Verse]
  Sitting alone...
D|-0-00000--00000--00000--00000-|
D|-0-00000--00000--00000--00000-|
A|-4-44444--44444--44444--44444-|
D|-4-44444--44444--44444--44444-|
Av-2-22222--22222--22222--22222-|
D|------------------------------|

  Youre trying to...
D|-0-00000--00000--000------------|
D|-0-00000--00000--0000-4/7-77-00-|
A|-4-44444--44444--4440-x---xx-00-|
D|-4-44444--44444--4440-4/7-77-00-|
A|-2-22222--22222--2220-0---00-00-|
D|--------------------0-0---00-00-|

  So afraid...  You cant go on...
D|-00000--00000--00000--000--0-00000--0-----0-00--------00-|
D|-00000--00000--00000--000--0-00000--0-----0-00-2/4-44-00-|
A|-44444--44444--44444--444--0-00000--0-----0-00-x---xx-00-|
D|-44444--44444--44444--444--5-55555--0-----0-00-2/4-44-00-|
A|-22222--22222--22222--222--5-55555-50-----0-00-0---00-00-|
D|---------------------------5-55555-50-2b4-0-00-0---00----|

  Left in the silence...
D|-0-00000--00000--00000--00000-|
D|-0-00000--00000--00000--00000-|
A|-4-44444--44444--44444--44444-|
D|-4-44444--44444--44444--44444-|
A|-2-22222--22222--22222--22222-|
D|------------------------------|

  They only reminds you...
D|-0-00000--00000--000------------|
D|-0-00000--00000--0000-4/7-77-00-|
A|-4-44444--44444--4440-x---xx-00-|
D|-4-44444--44444--4440-4/7-77-00-|
A|-2-22222--22222--2220-0---00-00-|
D|--------------------0-0---00-00-|

  Youve lost your way... Hope is not gone...
D|-00000--00000--00000--000--0-00000-00000-00000-00----|
D|-00000--00000--00000--000--0-00000-00000-00000-00-00-|
A|-44444--44444--44444--444--0-00000-00000-00000-55-00-|
D|-44444--44444--44444--444--5-55555-55555-55555-55-00-|
A|-22222--22222--22222--222--5-55555-55555-55555-55500-|
D|---------------------------5-55555-55555-55555-55500-|

[Chorus]
  Cause the sun always sets...
D|---------------------------------------------|
D|---------------------------------------------|
A|---------------------------------------------|
D|-7-77-7-77---7-77-77---9-99-9-90---5-55-5-50-|
A|-5-55-5-50---4-44-40---9-99-9-90---5-55-5-50-|
D|---------0---------0---9-99-9-90---5-55-5-50-|

  Keep Rolling...   Life must go on...
D|----------------------------------|
D|----------------------------------|
A|----------------------------------|
D|-7-77-7-77---7-77-77---99-077-05~-|
A|-5-55-5-50---4-44-40---99-077-05~-|
D|---------0---------0---99-077-05~-|

[Pre-Verse 2]
D|-0-00000--00000--00000--00000-|
D|-0-00000--00000--00000--00000-|
A|-4-44444--44444--44444--44444-| (2x)
D|-4-44444--44444--44444--44444-|
A|-2-22222--22222--22222--22222-|
D|------------------------------|

[Verse 2]
  Do you remember...
D|-0-00000--00000--00000--00000-|
D|-0-00000--00000--00000--00000-|
A|-4-44444--44444--44444--44444-|
D|-4-44444--44444--44444--44444-|
A|-2-22222--22222--22222--22222-|
D|------------------------------|

  When love was eternal...
D|-0-00000--00000--000------------|
D|-0-00000--00000--0000-4/7-77-00-|
A|-4-44444--44444--4440-x---xx-00-|
D|-4-44444--44444--4440-4/7-77-00-|
A|-2-22222--22222--2220-0---00-00-|
D|--------------------0-0---00-00-|

  Yesterday... Forever is gone...
D|-00000--00000--00000--000--0-00000-00000-00000-00----|
D|-00000--00000--00000--000--0-00000-00000-00000-00-00-|
A|-44444--44444--44444--444--0-00000-00000-00000-55-00-|
D|-44444--44444--44444--444--5-55555-55555-55555-55-00-|
A|-22222--22222--22222--222--5-55555-55555-55555-55500-|
D|---------------------------5-55555-55555-55555-55500-|

[Chorus 2]
  Cause the sun always sets...
D|---------------------------------------------|
D|---------------------------------------------|
A|---------------------------------------------|
D|-7-77-7-77---7-77-77---9-99-9-90---5-55-5-50-|
A|-5-55-5-50---4-44-40---9-99-9-90---5-55-5-50-|
D|---------0---------0---9-99-9-90---5-55-5-50-|

  Keep Rolling...   Life must go on...       It must go on...
D|-----------------------------------------------------------|
D|-----------------------------------------------------------|
A|-----------------------------------------------------------|
D|-7-77-7-77---7-77-77---99-077-05-555-50---99-077-05-555-50-|
A|-5-55-5-50---4-44-40---99-077-05-555-50---99-077-05-555-50-|
D|---------0---------0---99-077-05-555-50---99-077-05-555-50-|

[Bridge]
  We have our misfortunes...
D|---------------------------------------------|
D|---------------------------------------------|
A|---------------------------------------------|
D|-9-999-xxxx---5-555-50---9-999-90---7-777-70-|
A|-9-999-xxxx---5-555-50---9-999-90---7-777-70-|
D|-9-999-xxxx---5-555-50---9-999-90---7-777-70-|

  Just look to the morning...
D|---------------------------------------------|
D|---------------------------------------------|
A|---------------------------------------------|
D|-9-999--/---5-555-50---9-999-90---7-777-777~-|
A|-9-999--/---5-555-50---9-999-90---7-777-777~-|
D|-9-999--/---5-555-50---9-999-90---7-777-777~-|

  And the sun always sets...
D|--------------------------------------------------------------------------------|
D|---------2-2h4---4h5-----------------2p0------0-----2p0---0-------0-----5p0---0-|
A|---4h5------------------0---4-4h5---------------0-------------------0-----------|
D|-0-----0-------0----------------------------------------------------------------|
A|----------------------4---4---------------2-2-----2-----2-----------------------|
D|-------------------------------------------------------------/5-5-----5-----5---|

  Keep Rolling...                                        Life must go on...
D|-------------------------------------------------------------------|
D|---------2-2h4---4h5-----------------2p0---------------------------|
A|---4h5------------------0---4-4h5----------------------------------|
D|-0-----0-------0--------------------------999999---777777---555555-|
A|----------------------4---4--------0------999999---777777---555555-|
D|------------------------------------------999999---777777---555555-|

[Chorus]
  And the sun always sets...
D|---------------------------------------------|
D|---------------------------------------------|
A|---------------------------------------------|
D|-7-77-7-77---7-77-77---9-99-9-90---5-55-5-50-|
A|-5-55-5-50---4-44-40---9-99-9-90---5-55-5-50-|
D|---------0---------0---9-99-9-90---5-55-5-50-|

  Keep Rolling...   Life must go on...      It must go on...
D|-----------------------------------------------------------|
D|-----------------------------------------------------------|
A|-----------------------------------------------------------|
D|-7-77-7-77---7-77-77---99-077-05-555-50---99-077-022222222-|
A|-5-55-5-50---4-44-40---99-077-05-555-50---99-077-022222222-|
D|---------0---------0---99-077-05-555-50---99-077-022222222-|
                                                         
D|----------------------------------------------------------|
D|----------------------------------------------------------|
A|----1010----10/9------------------------------------------|(3x)
D|-00-x-x--00-x--x--000-7/9--009/11--0007-7777--7777-7777/9-|
A|-00-1010-00-10/9--000-7/9--00x-----0004-4444--0004-444x-x-|
D|-00-0-0--00-0--0--000-7/9--009/11--000--------000-----7/9-|

D|-----------------------------------------------------|
D|-----------------------------------------------------|
A|----1010----10/9-------------------------------------|
D|-00-x-x--00-x--x--000-7/9--009/11--0007-7777--777-7~-|
A|-00-1010-00-10/9--000-7/9--00x-----0004-4444--000-4~-|
D|-00-0-0--00-0--0--000-7/9--009/11--000--------000----|


************************************

| h  Hammer-on
| p  Pull-off
| ~  Vibrato
| /  Slide up
| x  Dead note
| b  Bend

************************************
Suggest correction
comments
print report bad tab
9 comments total. Showing first comments.
0 reply
brandon(KETE) 555 Oct 13, 2010 06:04 PM

sorry for the dots!! they are misplaced! dots means PALM MUTE!!

0 reply
Alter112 10 Nov 04, 2010 04:24 PM

yo, this is a pretty damn good tab compared to the other one, can you tab the lead for the end of the song? the other verson is totally wrong.

0 reply
brandon(KETE) 555 Nov 04, 2010 07:46 PM

Thanks for rating my tab! yeah I an tab the lead. I will post it as correction, soon!

guest
You may want to rate the tab now too:
select rating
Wanna post a correction for this tab? Suggest correction