Oops, an error
Loading. Please wait.

Metalingus Bass Tab

version 1
version 1

Whole song

19,713 views 48 this week
8 commentsread comments
1 2 3 4 5
x 5
add to favorites
launch autoscroll
font size
0
reset
guitar tuner
Autoscroll
slow
fast
+/-
esc
set tempo
stop
Help us to improve Ultimate-Guitar.com Take our survey!
×
Author
Song: Metalingus
Artist: Alter Bridge
Album: One Day Remains
Tuning: Standard

Intro Part 1: (16th Notes)
G|------|
D|------| Repeat until the bass
A|-6666-| guitar come together
E|------|

Intro Part 2: (All 16th notes. I separated them to make them easier to read)
   1 e & a 2 e & a 3 e & a 4 e & a
G|---------------------------------| x4
D|---------------------------------|
A|-9-6-----6---9-6-----6---7-7-7-7-|
E|-----6-9---9-----6-9---9---------|

Verse:
G|----------------------------------------------------|
D|-4-----5-----1------2--1111-1111-11111111-1111-1111-|
A|---------------2------------------------------------|
E|----------------------------------------------------|

Pre-Chorus: Repeat as 16th notes, same as Intro Part 1.
G|------|
D|------|
A|-6666-|
E|------|

Chorus:
G|--------------(8th notes)------------|
D|-------------------------------------|
A|-6------8---99999999-----------------|
E|--------------------9999999966666666-|

-->Verse

-->Chorus

Bridge Part 1:
G|-------------------------------|
D|-------------------------------|
A|-46666-646666-646666-646667777-|
E|-------------------------------|

Bridge Part 2: (Same notes, different rhythm)
G|---------------------------------|
D|---------------------------------|
A|-46-6-6-646-6-6-646-6-6-64667777-|
E|---------------------------------|

-->Chorus

Outro:
G|---------------------------------|
D|---------------------------------|
A|-6-6-6-6-6-6-6-6-6-6-6-6-677-677-|
E|---------------------------------|

G|-----------------------------------------------------------|
D|-----------------------------55----55----55----55----55----|
A|-6-6-6-6-6-6-6-6-6-6-6-6-6776--6776--6776--6776--6776--67\-|
E|-----------------------------------------------------------|

I dont have how many times riffs (like the chorus for example) repeat so you'll have to 
that out on your own until I find the time to put them up in another update.
Suggest correction
comments
print report bad tab
8 comments total. Showing first comments.
0 reply
PUNKfromNORWAY 113 Oct 12, 2007 01:29 PM

good!,what you have done, just waiting for the rest of it, Keep it up
***** :D

0 reply
PUNKfromNORWAY 113 Oct 14, 2007 05:48 AM

thanks for the rest, good work:D

0 reply
__Ronnie__ 999 Oct 14, 2007 12:40 PM

Thanks, I was actually putting the rets of it in when you made that comment.

guest
You may want to rate the tab now too:
select rating
Wanna post a correction for this tab? Suggest correction