Oops, an error
Loading. Please wait.

Metalingus Tab

version 3
version 3

Whole song

18,556 views 27 this week
1 commentread comment
1 2 3 4 5
accurate
x 5
add to favorites
launch autoscroll
font size
0
reset
how to read this tab
guitar tuner
Tab Pro tools
  • play this tab
  • loop segment
  • change instrument
  • show fretboard
  • metronome
×
Best way to learn
"Metalingus"
Autoscroll
slow
fast
+/-
esc
set tempo
stop
Contributor
Band- Alter Bridge
Song- Metalingus

Gtr I (C# G# C# F# A# D#) - 'elec dist'
Gtr II (C# G# C# F# A# D#) - 'elec dist (doubled)'

 Intro
  Moderately Q=110
  E5
 4/4
  Gtr I
                                               <
  Q   +H.         +W           +W              Q.    Q.   Q
|---------------|------------|--------------|-[x]---------0--|
|---------------|------------|--------------|-------[x]---0--|
|---------------|------------|--------------|----------------|
|---------------|------------|--------------|----------------|
|---------------|------------|--------------|----------------|
|-2--([2])------|-(2)--------|-(2)b3--------|----------------|


  G5E5D5E5
                           \1/      \1/  \1/  \1/      \1/
  S S S S H     Q      E  +E   +S  +E.  +E.  +S   +E  +E
|---------------x---|--------------------------------------|
|---------------x---|-(0)-(0)--(0)-(0)--(0)--(0)--(0)-(0)--|
|---------------x---|-(0)-(0)--(0)-(0)--(0)--(0)--(0)-(0)--|
|---------------x---|--------------------------------------|
|-5p2-0h2-------x---|--------------------------------------|
|-5p2-0h2------[x]--|--------------------------------------|


  G5E5D5F5
                   \1     /                  \1
  S S S S +Q   +S  E. +E  E   +Q   +Q   +E  +Q.
|---------------------------|---------------------|
|---------------------------|---------------------|
|---------------------------|---------------------|
|------------------0--(0)-3-|-(3)--(3)--(3)-(3)---|
|-5-2-0-3-(3)--(3)-0--(0)-3-|-(3)--(3)--(3)-(3)---|
|-5-2-0-3-(3)--(3)-0--(0)-3-|-(3)--(3)--(3)-(3)---|


 Pre-Verse
  G5E5D5E5D5E5G5E5D5E5D5E5F5E5D5E5  G5E5D5E5D5E5G5E5D5E5D5F5
  Gtr II
  S S S S S S S S S S S S S S S S   S S S S S S S S S S E S S S S
|---------------------------------|--------------------------------|
|---------------------------------|--------------------------------|
|---------------------------------|--------------------------------|
|-5-2-0-2-0-2-5-2-0-2-0-2-3-2-0-2-|-5-2-0-2-0-2-5-2-0-2-0----------|
|-5-2-0-2-0-2-5-2-0-2-0-2-3-2-0-2-|-5-2-0-2-0-2-5-2-0-2-0----------|
|-5-2-0-2-0-2-5-2-0-2-0-2-3-2-0-2-|-5-2-0-2-0-2-5-2-0-2-0-3-3-3-3--|


  G5E5D5E5D5E5G5E5D5E5D5E5F5E5D5E5  G5E5D5E5D5E5G5E5D5E5D5D5F5E5D5E5
                                                            PM----|
  S S S S S S S S S S S S S S S S   S S S S S S S S S S S S S S S S
|---------------------------------|---------------------------------|
|---------------------------------|---------------------------------|
|---------------------------------|---------------------------------|
|-5-2-0-2-0-2-5-2-0-2-0-2-3-2-0-2-|-5-2-0-2-0-2-5-2-0-2-0-0-3-2-0-2-|
|-5-2-0-2-0-2-5-2-0-2-0-2-3-2-0-2-|-5-2-0-2-0-2-5-2-0-2-0-0-3-2-0-2-|
|-5-2-0-2-0-2-5-2-0-2-0-2-3-2-0-2-|-5-2-0-2-0-2-5-2-0-2-0-0-3-2-0-2-|


 Verse
  G5        A5   D5   F5     G5E5D5E5D5E5G5E5D5E5D5E5F5E5D5E5
                             PM--|   PM------|   PM--------|
  H.      S E.   H    H      S S S S S S S S S S S S S S S S
|--------------|-----------|----------------------------------|
|--------------|-3---------|----------------------------------|
|-7-------7S9--|-2----5----|----------------------------------|
|-5-------5s7--|-0----3----|-5-2-0-2-0-2-5-2-0-2-0-2-3-2-0-2--|
|-5-------5S7--|-0----3----|-5-2-0-2-0-2-5-2-0-2-0-2-3-2-0-2--|
|-5-------5S7--|-0----3----|-5-2-0-2-0-2-5-2-0-2-0-2-3-2-0-2--|


  G5E5D5E5D5E5G5E5D5E5D5E5F5E5D5E5  G5        A5   D5   F
      PM  PM|     PM  PM|     PM|                        ~~~
  S S S S S S S S S S S S S S S S   H.      S E.   H     Q.   +E
|---------------------------------|--------------|------------------|
|---------------------------------|--------------|-3----------------|
|---------------------------------|-7-------7S9--|-2----------------|
|-5-2-0-2-0-2-5-2-0-2-0-2-3-2-0-2-|-5-------5s7--|-0----------------|
|-5-2-0-2-0-2-5-2-0-2-0-2-3-2-0-2-|-5-------5S7--|-0----------------|
|-5-2-0-2-0-2-5-2-0-2-0-2-3-2-0-2-|-5-------5S7--|-0----[3]---(3)\--|


  G5E5D5E5D5E5G5E5D5E5D5E5F5E5D5E5  G5E5D5E5D5E5G5E5D5E5D5E5F5E5D5E5
  PM--|   PM------|   PM--------|       PM  PM|     PM  PM|     PM|
  S S S S S S S S S S S S S S S S   S S S S S S S S S S S S S S S S
|---------------------------------|---------------------------------|
|---------------------------------|---------------------------------|
|---------------------------------|---------------------------------|
|-5-2-0-2-0-2-5-2-0-2-0-2-3-2-0-2-|-5-2-0-2-0-2-5-2-0-2-0-2-3-2-0-2-|
|-5-2-0-2-0-2-5-2-0-2-0-2-3-2-0-2-|-5-2-0-2-0-2-5-2-0-2-0-2-3-2-0-2-|
|-5-2-0-2-0-2-5-2-0-2-0-2-3-2-0-2-|-5-2-0-2-0-2-5-2-0-2-0-2-3-2-0-2-|


                            Pre-Chorus
  G5        A5   D5   F5     E5
  H.      S E.   H    H      S S S S S S S S S S S S S S S S
|--------------|-----------|----------------------------------|
|--------------|-3---------|----------------------------------|
|-7-------7S9--|-2----5----|----------------------------------|
|-5-------5s7--|-0----3----|----------------------------------|
|-5-------5S7--|-0----3----|----------------------------------|
|-5-------5S7--|-0----3----|-5-2-0-2-0-2-5-2-0-2-0-2-3-2-0-2--|


  S S S S S S S S S S S S S S S S   S S S S S S S S S S S S S S S S
|---------------------------------|---------------------------------|
|---------------------------------|---------------------------------|
|---------------------------------|---------------------------------|
|---------------------------------|---------------------------------|
|---------------------------------|---------------------------------|
|-5-2-0-2-0-2-5-2-0-2-0-0-3-3-3-3-|-5-2-0-2-0-2-5-2-0-2-0-2-3-2-0-0-|


                          Chorus
  G5E5D5E5  G5E5D5E5  G5   E5  D5E5         F#5
  S S S S E S S S S E Q    S E S Q  +E  E S E S
|------------------------|----------------------|
|---------------------8--|-------5--(5)-----7---|
|---------------------7--|-------4--(4)-----6-0-|
|-5-2-0-2---5-2-0-2---5--|-2-2---2--(2)-2---4-0-|
|-5-2-0-2---5-2-0-2---5--|-2-2-0-2--(2)-2-0-4---|
|-5-2-0-2---5-2-0-2---5--|-2-2-0-2--(2)-2-0-4---|


  G5                   D5
              \0.5/
              ~~~~~~
  Q  Q   Q   +Q        Q  S S S S S S S S +S  S S S
|--------------------|------------------------------|
|----8---------------|------------------------------|
|-7--7--<5>--(5)-----|----7-7-7-7-------9-(9)-7-7-7-|
|-5--5---x-----------|----x-x-x-x---0-0-x-----x-x-x-|
|-5--5--<5>----------|-0--5-5-5-5---0-0-7-(7)-5-5-5-|
|-5--5---------------|-0----------0-0-0-------------|


  C                                 D5
  S S S S S S  S  S S  S S  S  S  S S S
|----------------------------------------|
|----------------------------------------|
|-5-5---7-7---11-11---12---14-14-14------|
|-x-x---x-x----x--x----x----x--x--x------|
|-3-3---5-5----9--9---10---12-12-12-0-0--|
|-----0-----0-------0----0----------0-0--|


  E5  D5E5         F#5   G5
                               |-----6-----|  |-----6------|
  S E S Q  +E  E S E S   Q  Q  S S  S S S  S  S  S S  S  S S
|----------------------|-------------------------------------|
|-------5--(5)-----7---|----8--------------------------------|
|-------4--(4)-----6-0-|-7--7--------------------------------|
|-2-2---2--(2)-2---4-0-|-5--5---------7h9h10-12p10p9---------|
|-2-2-0-2--(2)-2-0-4---|-5--5--7h9h10----------------12p10p9-|
|-2-2-0-2--(2)-2-0-4---|-5--5--------------------------------|


  D5                      C                                 D5
  Q  E. S S S E S S S S   S S S S S S  S  S S  S S  S  S  S S S
|-----------------------|----------------------------------------|
|-------------------0-0-|----------------------------------------|
|----7--7-------9s7-0-0-|-5-5---7-7---11-11---12---14-14-14------|
|----x--x-------x-x-0-0-|-x-x---x-x----x--x----x----x--x--x------|
|-0--5--5-0-0-0-7s5-----|-3-3---5-5----9--9---10---12-12-12-0-0--|
|-0-------0-0-0---------|-----0-----0-------0----0----------0-0--|


   Pre-Verse
    E5
    S S S S S S S S S S S S S S S S   S S S S S S S S S S S S S S S S
||----------------------------------|-----------------------------------||
||o---------------------------------|----------------------------------o||
||----------------------------------|-----------------------------------||
||----------------------------------|-----------------------------------||
||o---------------------------------|----------------------------------o||
||--5-2-0-2-0-2-5-2-0-2-0-2-3-2-0-2-|-5-2-0-2-0-2-5-2-0-2-0-0-3-3-3-3---||


 Verse
  G5        A5   D5   F5     G5E5D5E5D5E5G5E5D5E5D5E5F5E5D5E5
                             PM--|   PM------|   PM--------|
  H.      S E.   H    H      S S S S S S S S S S S S S S S S
|--------------|-----------|----------------------------------|
|--------------|-3---------|----------------------------------|
|-7-------7S9--|-2----5----|----------------------------------|
|-5-------5s7--|-0----3----|-5-2-0-2-0-2-5-2-0-2-0-2-3-2-0-2--|
|-5-------5S7--|-0----3----|-5-2-0-2-0-2-5-2-0-2-0-2-3-2-0-2--|
|-5-------5S7--|-0----3----|-5-2-0-2-0-2-5-2-0-2-0-2-3-2-0-2--|


  G5E5D5E5D5E5G5E5D5E5D5E5F5E5D5E5  G5        A5   D5
      PM  PM|     PM  PM|     PM|                            ~~~~~~
  S S S S S S S S S S S S S S S S   H.      S E.   H    S S  Q     +E
|---------------------------------|--------------|---------------------|
|---------------------------------|--------------|-3-------------------|
|---------------------------------|-7-------7S9--|-2-------------------|
|-5-2-0-2-0-2-5-2-0-2-0-2-3-2-0-2-|-5-------5s7--|-0-------------------|
|-5-2-0-2-0-2-5-2-0-2-0-2-3-2-0-2-|-5-------5S7--|-0-------------------|
|-5-2-0-2-0-2-5-2-0-2-0-2-3-2-0-2-|-5-------5S7--|-0----2p0-[5]b7r=(5)-|


  G5E5D5E5D5E5G5E5D5E5D5E5F5E5D5E5  G5E5D5E5D5E5G5E5D5E5D5E5F5E5D5E5
  PM--|   PM------|   PM--------|       PM  PM|     PM  PM|     PM|
  S S S S S S S S S S S S S S S S   S S S S S S S S S S S S S S S S
|---------------------------------|---------------------------------|
|---------------------------------|---------------------------------|
|---------------------------------|---------------------------------|
|-5-2-0-2-0-2-5-2-0-2-0-2-3-2-0-2-|-5-2-0-2-0-2-5-2-0-2-0-2-3-2-0-2-|
|-5-2-0-2-0-2-5-2-0-2-0-2-3-2-0-2-|-5-2-0-2-0-2-5-2-0-2-0-2-3-2-0-2-|
|-5-2-0-2-0-2-5-2-0-2-0-2-3-2-0-2-|-5-2-0-2-0-2-5-2-0-2-0-2-3-2-0-2-|


                            Pre-Chorus
  G5        A5   D5   F5     E5
  H.      S E.   H    H      S S S S S S S S S S S S S S S S
|--------------|-----------|----------------------------------|
|--------------|-3---------|----------------------------------|
|-7-------7S9--|-2----5----|----------------------------------|
|-5-------5s7--|-0----3----|----------------------------------|
|-5-------5S7--|-0----3----|----------------------------------|
|-5-------5S7--|-0----3----|-5-2-0-2-0-2-5-2-0-2-0-2-3-2-0-2--|


  S S S S S S S S S S S S S S S S   S S S S S S S S S S S S S S S S
|---------------------------------|---------------------------------|
|---------------------------------|---------------------------------|
|---------------------------------|---------------------------------|
|---------------------------------|---------------------------------|
|---------------------------------|---------------------------------|
|-5-2-0-2-0-2-5-2-0-2-0-0-3-3-3-3-|-5-2-0-2-0-2-5-2-0-2-0-2-3-2-0-0-|


                             Chorus
  G5E5D5E5  G5E5D5E5          E5  D5E5         F#5
  S S S S E S S S S E   Q     S E S Q  +E  E S E S
|---------------------------|----------------------|
|---------------------------|-------5--(5)-----7---|
|---------------------^<5>--|-------4--(4)-----6-0-|
|-5-2-0-2---5-2-0-2---^<5>--|-2-2---2--(2)-2---4-0-|
|-5-2-0-2---5-2-0-2---^<5>--|-2-2-0-2--(2)-2-0-4---|
|-5-2-0-2---5-2-0-2---------|-2-2-0-2--(2)-2-0-4---|


  G5                        D5
  Q  E. S S S S S S S S S   Q  E. S S S E S S S S
|-------------------------|-----------------------|
|----8--7-8-7-7-7-8-7-7-7-|-----------------------|
|-7--7--7-7-7-7-7-7-7-7-7-|----7--7-------9s7-7---|
|-5--5--------------------|----x--x-------x-x-x-0-|
|-5--5--------------------|-0--5--5-0-0-0-7s5-5-0-|
|-5--5--------------------|-0-------0-0-0---------|


  C                                 D5    E5  D5E5         F#5
  S S S S S S  S  S S  S S  S  S  S S S   S E S Q  +E  E S E S
|---------------------------------------|----------------------|
|---------------------------------------|-------5--(5)-----7---|
|-5-5---7-7---11-11---12---14-14-14-----|-------4--(4)-----6-0-|
|-x-x---x-x----x--x----x----x--x--x-----|-2-2---2--(2)-2---4-0-|
|-3-3---5-5----9--9---10---12-12-12-0-0-|-2-2-0-2--(2)-2-0-4---|
|-----0-----0-------0----0----------0-0-|-2-2-0-2--(2)-2-0-4---|


  G5                   D5
              \0.5/
              ~~~~~~
  Q  Q   Q   +Q        Q  S S S S S S S S +S  S S S
|--------------------|------------------------------|
|----8---------------|------------------------------|
|-7--7--<5>--(5)-----|----7-7-7-7-------9-(9)-7-7-7-|
|-5--5---x-----------|----x-x-x-x---0-0-x-----x-x-x-|
|-5--5--<5>----------|-0--5-5-5-5---0-0-7-(7)-5-5-5-|
|-5--5---------------|-0----------0-0-0-------------|


  C                                 D5
  S S S S S S  S  S S  S S  S  S  S S S
|----------------------------------------|
|----------------------------------------|
|-5-5---7-7---11-11---12---14-14-14------|
|-x-x---x-x----x--x----x----x--x--x------|
|-3-3---5-5----9--9---10---12-12-12-0-0--|
|-----0-----0-------0----0----------0-0--|


  E5  D5E5         F#5   G5
                               |----6----| |----6----|
  S E S Q  +E  E S E S   Q  Q  S S S S S S S S S S S S
|----------------------|-------------------------------|
|-------5--(5)-----7---|-8--8--------------------------|
|-------4--(4)-----6-0-|-7--7--------------------------|
|-2-2---2--(2)-2---4-0-|-5--5--------------------------|
|-2-2-0-2--(2)-2-0-4---|-5--5--------------------------|
|-2-2-0-2--(2)-2-0-4---|-5--5--8p6p5h8p6p5h8p6p5h8p6p5-|


  D5                         C                                 D5
  Q  S S S S S S E S S S S   S S S S S S  S  S S  S S  S  S  S S S
|--------------------------|---------------------------------------|
|--------------------------|---------------------------------------|
|----7-7-7-7-------9s7-7-0-|-5-5---7-7---11-11---12---14-14-14-----|
|----x-x-x-x-------x-x-x-0-|-x-x---x-x----x--x----x----x--x--x-----|
|-0--5-5-5-5-0-0-0-7s5-5---|-3-3---5-5----9--9---10---12-12-12-0-0-|
|-0----------0-0-0---------|-----0-----0-------0----0----------0-0-|


  E5  D5E5         F#5   G5
  S E S Q  +E  E S E S   Q  Q  Q    Q
|----------------------|----------------|
|-------5--(5)-----7---|----8-----------|
|-------4--(4)-----6-0-|-7--7-----------|
|-2-2---2--(2)-2---4-0-|-5--5-----------|
|-2-2-0-2--(2)-2-0-4---|-5--5-----------|
|-2-2-0-2--(2)-2-0-4---|-5--5--x\--16\--|


  D5                     C                                 D5
  Q  E S S S S E S S E   S S S S S S  S  S S  S S  S  S  S S S
|----------------------|----------------------------------------|
|----------------------|----------------------------------------|
|----7-7-7-------9s7---|-5-5---7-7---11-11---12---14-14-14------|
|----x-x-x-------x-----|-x-x---x-x----x--x----x----x--x--x------|
|-0--5-5-5-0-0-0-7s5-0-|-3-3---5-5----9--9---10---12-12-12-0-0--|
|-0--------0-0-0-----0-|-----0-----0-------0----0----------0-0--|


 Interlude
  E5                                                  F#5
  PM------------------------------------------------|
  S S S S S E S S S S S S E S   S S S S S E S S S S S S S S S
|-----------------------------|-------------------------------|
|-----------------------------|-------------------------------|
|-----------------------------|-------------------------------|
|-----------------------------|-----------------------3-3-3-3-|
|-----------------------------|-------------------------------|
|-0h2-2-2-3-2-2-0h2-2-2-5-2-2-|-0h2-2-2-3-2-2-0-3-3-3---------|


  E5
  PM--------------------------------------------------------|
  S S S S S E S S S S S S E S   S S S S S E S S S S S S S S S
|-----------------------------|-------------------------------|
|-----------------------------|-------------------------------|
|-----------------------------|-------------------------------|
|-----------------------------|-------------------------------|
|-----------------------------|---------------5-2-3---2-------|
|-0h2-2-2-3-2-2-0h2-2-2-5-2-2-|-0h2-2-2-3-2-2-------5---3-5-3-|


  D5E5    F5E5  D5E5    G E5    D5E5    F5E5  D5F5
      PM------|     PM------|       PM--------------|
  S S S S S E S S S S S S E S   S S S S S E S S S S S S S S S
|-----------------------------|-------------------------------|
|-----------------------------|-------------------------------|
|-----------------------------|-------------------------------|
|-0h2-2-2-3-2-2-0h2-2-2-5-2-2-|-0h2-2-2-3-2-2-0-3-3-3-3-3-3-3-|
|-0h2-2-2-3-2-2-0h2-2-2-2-2-2-|-0h2-2-2-3-2-2-0-3-3-3---------|
|-0h2-2-2-3-2-2-0h2-2-2-5-2-2-|-0h2-2-2-3-2-2-0-3-3-3---------|


  D5E5    F5E5  D5  E5  G5E5      D5E5    F5E5
      PM--------|     PM------|       PM------|       PM----|
                                                |-3-|         |-3-|
  S S S S S S S S S S S S S E S   S S S S S E S S S S S S S S S S S
|-------------------------------|-----------------------------------|
|-------------------------------|-----------------------------------|
|-------------------------------|-----------------------------------|
|-0h2-2-2-3-2-2-0-0h2-2-5-2-2-2-|-0h2-2-2-3-2-2-2-3-2---------------|
|-0h2-2-2-3-2-2-0-0h2-2-5-2-2-2-|-0h2-2-2-3-2-2-------5-2-3-5-2-3-2-|
|-0h2-2-2-3-2-2-0-0h2-2-5-2-2-2-|-0h2-2-2-3-2-2---------------------|


   Bridge
    D5E5    F5E5  D5E5    G5E5    D5E5    F5E5  D5F5
        PM------|     PM------|       PM--------------|
    S S S S S E S S S S S S E S   S S S S S E S S S S S S S S S
||------------------------------|-------------------------------|
||o-----------------------------|-------------------------------|
||------------------------------|-------------------------------|
||--0h2-2-2-3-2-2-0h2-2-2-5-2-2-|-0h2-2-2-3-2-2-0-3-3-3-3-3-3-3-|
||o-0h2-2-2-3-2-2-0h2-2-2-5-2-2-|-0h2-2-2-3-2-2-0-3-3-3---------|
||--0h2-2-2-3-2-2-0h2-2-2-5-2-2-|-0h2-2-2-3-2-2-0-3-3-3---------|


                               1.
  D5E5    F5E5  D5E5    G5E5    D5E5    F5E5
      PM------|     PM------|       PM------|
  S S S S S E S S S S S S E S   S S S S S E S S S S S S S S S
|-----------------------------|--------------------------------||
|-----------------------------|-------------------------------o||
|-----------------------------|--------------------------------||
|-0h2-2-2-3-2-2-0h2-2-2-5-2-2-|-0h2-2-2-3-2-2------------------||
|-0h2-2-2-3-2-2-0h2-2-2-5-2-2-|-0h2-2-2-3-2-2-5-2-3---2-------o||
|-0h2-2-2-3-2-2-0h2-2-2-5-2-2-|-0h2-2-2-3-2-2-------5---3-5-3--||


  2.
  D5E5    F5E5D5E5
      PM|
  S S S S S E S E Q  E
|----------------------|
|----------------------|
|----------------------|
|-0h2-2-2-3-2-0-2------|
|-0h2-2-2-3-2-0-2------|
|-0h2-2-2-3-2-0-2------|


   Breakdown
    D5E5    F5E5    G5E5    G5E5      G5E5    F5E5      F5
        PM|             PM|               PM|
    S S S S S E +S  S S S S S E +S    S S S S S E +S  S S S S S S S S
||----------------------------------|---------------------------------|
||o---------------------------------|---------------------------------|
||----------------------------------|---------------------------------|
||--0h2-2-2-3-2-(2)-5p2-2-2-5p2-(2)-|-5p2-2-2-3p2-(2)---------3-3-3-3-|
||o-0h2-2-2-3-2-(2)-5p2-2-2-5p2-(2)-|-5p2-2-2-3p2-(2)-----------------|
||--0h2-2-2-3-2-(2)-5p2-2-2-5p2-(2)-|-5p2-2-2-3p2-(2)-0-3-3-3---------|


                                   1.
  D5E5    F5E5    G5E5    G5E5      G5E5    F5E5
      PM|             PM|               PM|               PM|
                                                    |-3-|         |-3-|
  S S S S S E +S  S S S S S E +S    S S S S S E +S  S S S S S S S S S S
|---------------------------------|---------------------------------------||
|---------------------------------|--------------------------------------o||
|---------------------------------|---------------------------------------||
|-0h2-2-2-3p2-(2)-5p2-2-2-5p2-(2)-|-5p2-2-2-3p2-(2)-2-3-2-----------------||
|-0h2-2-2-3p2-(2)-5p2-2-2-5p2-(2)-|-5p2-2-2-3p2-(2)-------5-2-3-5-2-3-2--o||
|-0h2-2-2-3p2-(2)-5p2-2-2-5p2-(2)-|-5p2-2-2-3p2-(2)-----------------------||


  2.
  D5E5    F5E5D5F5
                        2/4
      PM|
  S S S S S E S E Q  E   W
|----------------------|------|
|----------------------|------|
|----------------------|------|
|-0h2-2-2-3-2-0-3------|------|
|-0h2-2-2-3-2-0-3------|------|
|-0h2-2-2-3-2-0-3------|------|


 Chorus
  E5  D5E5         F#5   G5                   D5
 4/4
                                     \0.5/
                                     ~~~~~~
  S E S Q  +E  E S E S   Q  Q   Q   +Q        Q  S S S S S S S S +S  S S S
|----------------------|--------------------|------------------------------|
|-------5--(5)-----7---|----8---------------|------------------------------|
|-------4--(4)-----6-0-|-7--7--<5>--(5)-----|----7-7-7-7-------9-(9)-7-7-7-|
|-2-2---2--(2)-2---4-0-|-5--5---x-----------|----x-x-x-x---0-0-x-----x-x-x-|
|-2-2-0-2--(2)-2-0-4---|-5--5--<5>----------|-0--5-5-5-5---0-0-7-(7)-5-5-5-|
|-2-2-0-2--(2)-2-0-4---|-5--5---------------|-0----------0-0-0-------------|


  C                                 D5    E5  D5E5         F#5
  S S S S S S  S  S S  S S  S  S  S S S   S E S Q  +E  E S E S
|---------------------------------------|----------------------|
|---------------------------------------|-------5--(5)-----7---|
|-5-5---7-7---11-11---12---14-14-14-----|-------4--(4)-----6-0-|
|-x-x---x-x----x--x----x----x--x--x-----|-2-2---2--(2)-2---4-0-|
|-3-3---5-5----9--9---10---12-12-12-0-0-|-2-2-0-2--(2)-2-0-4---|
|-----0-----0-------0----0----------0-0-|-2-2-0-2--(2)-2-0-4---|


  G5                                    D5
         |-----6------|  |----6-----|
  Q  Q   S  S S  S  S S  S S S  S S S   Q  E +S  S S S E S S S S
|-------------------------------------|--------------------------|
|----8--------------------------------|----------------------0-0-|
|----7--------------------------------|----7-(7)-7-------9s7-0-0-|
|-5--5--12-10-9---------10-8-7--------|----x-----x-------x---0-0-|
|-5--5----------12-10-9--------10-8-7-|-0--5-(5)-5-0-0-0-7s5-----|
|-5--5--------------------------------|-0----------0-0-0---------|


  C                                 D5    E5  D5E5         F#5
  S S S S S S  S  S S  S S  S  S  S S S   S E S Q  +E  E S E S
|---------------------------------------|----------------------|
|---------------------------------------|-------5--(5)-----7---|
|-5-5---7-7---11-11---12---14-14-14-----|-------4--(4)-----6-0-|
|-x-x---x-x----x--x----x----x--x--x-----|-2-2---2--(2)-2---4-0-|
|-3-3---5-5----9--9---10---12-12-12-0-0-|-2-2-0-2--(2)-2-0-4---|
|-----0-----0-------0----0----------0-0-|-2-2-0-2--(2)-2-0-4---|


  G5               D5
  Q  Q  Q    Q     Q  E +S  S S S E S S S S
|----------------|--------------------------|
|----8-----------|----------------------0-0-|
|-7--7-----------|----7-(7)-7-------9s7-0-0-|
|-5--5-----------|----x-----x-------x---0-0-|
|-5--5-----------|-0--5-(5)-5-0-0-0-7s5-----|
|-5--5--x\--16\--|-0----------0-0-0---------|


  C                                 D5
  S S S S S S  S  S S  S S  S  S  S S S
|----------------------------------------|
|----------------------------------------|
|-5-5---7-7---11-11---12---14-14-14------|
|-x-x---x-x----x--x----x----x--x--x------|
|-3-3---5-5----9--9---10---12-12-12-0-0--|
|-----0-----0-------0----0----------0-0--|


  E5  D5E5         F#5   G5                   D5
                                      \2.5
  S E S Q  +E  E S E S   Q  Q   Q    +Q       Q  E +S  S S S E S S S S
|----------------------|--------------------|---------------------------|
|-------5--(5)-----7---|--------------------|----------------------0-0--|
|-------4--(4)-----6-0-|-------<5>--(<5>)---|----7-(7)-7-------9s7-0-0--|
|-2-2---2--(2)-2---4-0-|-------<5>--(<5>)---|----x-----x-------x---0-0--|
|-2-2-0-2--(2)-2-0-4---|-5--5---------------|-0--5-(5)-5-0-0-0-7s5------|
|-2-2-0-2--(2)-2-0-4---|-5--5---------------|-0----------0-0-0----------|


  C                                 D5
  S S S S S S  S  S S  S S  S  S  S E
|-------------------------------------|
|-------------------------------------|
|-5-5---7-7---11-11---12---14-14-14---|
|-x-x---x-x----x--x----x----x--x--x---|
|-3-3---5-5----9--9---10---12-12-12-0-|
|-----0-----0-------0----0----------0-|


   Outro
    D5E5    F5E5 D5E5    G5E5   D5E5    F5E5 D5F5 D5F5
        PM|          PM|            PM|
    S S S S S E. S S S S S E.   S S S S S E. S E. S E.
||----------------------------|-------------------------||
||o---------------------------|------------------------o||
||----------------------------|-------------------------||
||----------------------------|-------------------------||
||o-0h2-2-2-3p2--0h2-2-2-5p2--|-0h2-2-2-3p2--0-3--0-3--o||
||--0h2-2-2-3p2--0h2-2-2-5p2--|-0h2-2-2-3p2--0-3--0-3---||


  E5          F5  E5                  G5  E5
  PM--------------------------------------------|
  T T S T T S T T S T T S T T S T T S T T S T T S
|-------------------------------------------------|
|-------------------------------------------------|
|-------------------------------------------------|
|-------------------------------------------------|
|-------------------------------------------------|
|-2-2-2-2-2-2-3-3-2-2-2-2-2-2-2-2-2-2-5-5-2-2-2-2-|


  E5          F5  E5      D5F5  D5F5
  PM--------------------|       PM
  T T S T T S T T S T T S S E S S E S
|-------------------------------------|
|-------------------------------------|
|-------------------------------------|
|-------------------------0-3-3-0-3-3-|
|-------------------------0-3-3-0-3-3-|
|-2-2-2-2-2-2-3-3-2-2-2-2-0-3-3-0-3-3-|


  E5          F5  E5                  G5  E5
  PM--------------------------------------------|
  T T S T T S T T S T T S T T S T T S T T S T T S
|-------------------------------------------------|
|-------------------------------------------------|
|-------------------------------------------------|
|-------------------------------------------------|
|-------------------------------------------------|
|-2-2-2-2-2-2-3-3-2-2-2-2-2-2-2-2-2-2-5-5-2-2-2-2-|


  E5          F5  E5        G5    F5      G5    F5D5  E5
                                       2/4
  PM--------------------|
  T T S T T S T T S T T S S E S S E S   S E S S E S   S E. Q
|-------------------------------------|-------------|---------*|
|-------------------------------------|-------------|---------*|
|-------------------------------------|-------------|---------*|
|---------------------------5-5---3-3-|---5-5---3-0-|-2-2-----*|
|-------------------------x-5-5-x-3-3-|-x-5-5-x-3-0-|-2-2-----*|
|-2-2-2-2-2-2-3-3-2-2-2-2-x-5-5-x-3-3-|-x-5-5-x-3-0-|-2-2-----*|


Duration Legend
---------------
W - whole; H - half; Q - quarter; E - 8th; S - 16th; T - 32nd; X - 64th; a - acciaccatura
+ - note tied to previous; . - note dotted; .. - note double dotted
Uncapitalized letters represent notes that are staccato (1/2 duration)
Irregular groupings are notated above the duration line
Duration letters will always appear directly above the note/fret number it represents the
duration for.  Duration letters with no fret number below them represent rests.  Multi-
bar rests are notated in the form Wxn, where n is the number of bars to rest for.  Low
melody durations appear below the staff

Tablature Legend
----------------
 h   - hammer-on
 p   - pull-off
 b   - bend
 pb  - pre-bend
 r   - bend release (if no number after the r, then release immediately)
 /\  - slide into or out of (from/to "nowhere")
 s   - legato slide
 S   - shift slide
  - natural harmonic
[n]  - artificial harmonic
n(n) - tapped harmonic
 ~   - vibrato
 tr  - trill
 T   - tap
 TP  - trem. picking
 PM  - palm muting
\n/  - tremolo bar dip; n = amount to dip
 \n  - tremolo bar down
 n/  - tremolo bar up
/n\  - tremolo bar inverted dip
 =   - hold bend; also acts as connecting device for hammers/pulls
 <>  - volume swell (louder/softer)
 x   - on rhythm slash represents muted slash
 o   - on rhythm slash represents single note slash

Misc Legend
-----------
 |  - bar
||  - double bar
||o - repeat start
o|| - repeat end
*|  - double bar (ending)
 :  - bar (freetime)
 $  - Segno
 &  - Coda
Tempo markers -  = BPM(8/16=s8/s16), where s8 = swing 8ths, s16 = swing 16ths


***************************************************************************************
* Generated using Power Tab Editor by Brad Larsen - http://powertab.guitarnetwork.org *
***************************************************************************************
comments
print report bad tab
1 comment total.
0 reply
beans1234567 wrote on December 23 2007, 12:37 am

nice job. wow this song is fun to play. thanks bro

I want to post or [tab]
guest
You may want to rate the tab now too:
select rating
Please do not post tabs as comments. Select "correction" instead!