Oops, an error
Loading. Please wait.

My Champion Tab

version 1
version 1

Whole song

  • First tab of full song, both guitar parts.
7,063 views 423 this week
12 commentsread comments
1 2 3 4 5
x 11
add to favorites
launch autoscroll
font size
0
reset
how to read this tab
guitar tuner
Autoscroll
slow
fast
+/-
esc
set tempo
stop
Help us to improve Ultimate-Guitar.com Take our survey!
×
Author
Tuning
C F A# D# G C
[Intro]

1st:                                                       2nd:
C|-----------------------------------|                     |---------------------------------|
G|-13-----12-----10------8------3----|                     |-13------12------3------5------3-|
E|--0(x4)--0(x5)--0(x4)--0(x2)--0(x3)|                     |--0-(x4)--0(x5)--0(x2)--0(x3)--0-|
B|-----------------------------------|                     |---------------------------------|
F|-----------------------------------|                     |---------------------------------|
C|-----------------------------------|                     |---------------------------------|

3rd:                                                       
C|--------------------------------|                        |--------------------------|      
G|--13----12-----10------8------3-|                        |-13---12-----3-----5------|
E|--0(x4)--0(x5)--0(x3)--0(x3)--0-|                        |-0(x4)-0(x5)-0(x2)-0(x15)-|(Finish on this bit)
B|--------------------------------|                        |--------------------------|
F|--------------------------------|                        |--------------------------|
C|--------------------------------|                        |--------------------------|

Then 2nd guitar comes in with:
C|-----------|
G|-----------|
E|-5-5-------|
B|-5-5-------|
F|-3-3-------|
C|-----------|

Thanks to Mhaggard25 for figuring this bit out!
C|------------------------------------------------------------------3-|
G|--5-3-0---3~------------------------------------------------------3-|
E|--------4-----4--2--0-----2~----(0)2br--0--4--2--0-----2--0-------0-|
B|-----------------------4----------------------------4--------2-0--0-|
F|------------------------------------------------------------------2-|
C|------------------------------------------------------------------3-|    


[Verse] 

Not so sure on the picking parts! Also quite difficult to hear:

C|-----3~--------------------------------------| |-------------|
G|-----3~--------------------------------------| |-8-8/10/12-12|(After second G chord)
E|-5~--0~-----------0---0----------------------| |-------------|
B|-5~--0~----------------10~-----------5~------| |-------------|
F|-3~--2~---------10--10-10~--10-10-7--5~------| |-------------|
C|-----3~(x2)----8---7---8~-8---7--5---3-------| |-------------|


[Pre-Chorus] 

There's a high note in there but can't figure it out atm
C|----------------------------------|
G|----------------------------------|
E|----------------------------------|
B|-5-----7-9-----11-12--------------|
F|-3(x5)-5-7(x5)-9--10(x6)12--------|
C|------------------------10(x10)---|


[Chorus]

C|---------------------------------------------------------------|
G|---------------------------------------------------------------|
E|-5------------5----------5----------5------7-------------------|
B|-5-----5------5----2-----5-----5----5-5----7-------------------|
F|-3(x3)-5------3(x3)2-----3(x10)5----3-5----5(x15)--------------|
C|-------3(x15)------0(x10)------3(x6)--3(x6)--------------------|


[Bridge]

C|------------------------------------|
G|------------------------------------|
E|-4-----5-----4------2------4----5---|
B|-4-----5-----4------2------4----3---|Don't trust me with the actual number of times to play the note(s)
F|-2(x8)-3(x8)-2(x10)-0(x10)-2(x8)3---|Just a guess really, most likely will not be accurate
C|------------------------------------|

[Solo rhythm]

C|--------------------|     |--------------------|
G|--------------------|     |--------------------|
E|--------------------|     |-------------7------|
B|-3-----2-----5------|     |-3-----2-----7------|(End on this)
F|-3-----2-----5------|     |-3-----2-----5(x15)-|
C|-1(x8)-0(x8)-3(x20)-|(x3) |-1(x8)-0(x8)--------|

[Outro]

C|--------------|     |--------------------|
G|--------------|     |--------------------|
E|-5------------|     |--------------------|
B|-5-----5------|     |-3~-2~-5~-----------|
F|-3(x15)5------|     |-3~-2~-5~-----------|
C|-------3(x15)-|(x2) |-1~-0~-3~(let ring)-|


And that's what I have so far! Will edit if I figure some stuff out, or if you figure them out yourself, would
greatly appreciate a suggestion or correction!
May not be the most accurate tab ever done, but really wanted to do this as
soon as possible! :D

************************************

| h  Hammer-on
| p  Pull-off
| /  Slide up
| ~  Vibrato

************************************
Suggest correction
comments
print report bad tab
12 comments total. Showing first comments.
+1 reply
jordanleahair 10 Sep 25, 2016 05:01 PM

great tab pal, just used this tab as a base and worked on it a little, that second to last chord could be
---------
---------
-5~------
-5~------
-2~------
---------

0 reply
jack.tyler-prime 297 Sep 29, 2016 04:47 PM

Thanks man! Will just edit that in if you don't mind, will give credit:)

+1 reply
Jhenri 101 Oct 01, 2016 01:43 AM

Just so you know Mark said in an interview the bottom string is tuned to C, the tuning is D#A#F#C#G#C.

guest
You may want to rate the tab now too:
select rating
Wanna post a correction for this tab? Suggest correction