Oops, an error
Loading. Please wait.

My Champion Tab

version 2
version 2

Whole song

  • First tab of full song, both guitar parts.
640 views 114 this week
1 commentread comment
1 2 3 4 5
x 3
add to favorites
launch autoscroll
font size
0
reset
how to read this tab
guitar tuner
Autoscroll
slow
fast
+/-
esc
set tempo
stop
Help us to improve Ultimate-Guitar.com Take our survey!
×
Author
Difficulty
Tuning
intermediate
D# G# C# F# A# D#
About this tab version
First tab of full song, both guitar parts. Was this info helpful? Yes No
-----------------------------------------------------------------
Artist:  Alter Bridge
Song:    My Champion
----------------------------------------------------------------- 
Tabbed by: jjhand
Tuning: Myles - C# F# C# F# A# C#  (open G tuned down 1 fret)
        Mark  - B G# C# F# A# D#  (D# standard with B on low end)

I took a lot of the clues on tuning and the parts from YouTube and Facebook 
videos since many live recordings exist. The song has great melody and 
positive lyrics and another great Tremonti solo. Please vote or comment.


Intro (Myles) - keep each note short with muting. 

C#|-10-10-10-10--9--9--9--9--|-9--7--7--5--5--5--5--0--|
A#|--------------0--0--0--0--|-0--0--0--0--0--0--0--0--|
F#|--9--9--9--9--0--0--0--0--|-0--0--0--0--0--0--0--0--|
C#|--------------------------|-------------------------|
F#|--------------------------|-------------------------|
C#|--------------------------|-------------------------|

C#|-10-10-10-10--9--9--9--9--|-9--7--7--2--2--2--2--0--|
A#|--------------0--0--0--0--|-0--0--0--0--0--0--0--0--|
F#|--9--9--9--9--0--0--0--0--|-0--0--0--0--0--0--0--0--|
C#|--------------------------|-------------------------|
F#|--------------------------|-------------------------|
C#|--------------------------|-------------------------|

C#|-10-10-10-10--9--9--9--9--|-9--7--7--5--5--5--5--0--|
A#|--------------0--0--0--0--|-0--0--0--0--0--0--0--0--|
F#|--9--9--9--9--0--0--0--0--|-0--0--0--0--0--0--0--0--|
C#|--------------------------|-------------------------|
F#|--------------------------|-------------------------|
C#|--------------------------|-------------------------|

                               6/4
C#|-10-10-10-10--9--9--9--9--|-9--0--0--2--2--2--2--2--2--2--2--2-|
A#|--------------0--0--0--0--|-0--0--0--0--0--0--0--0--0--0--0--0-|
F#|--9--9--9--9--7--7--7--7--|-7--0--0--0--0--0--0--0--0--0--0--0-|
C#|--------------------------|------------------------------------|
F#|--------------------------|------------------------------------|
C#|--------------------------|------------------------------------|
   note that last bar has 2 more beats



Pre-Verse Riff - 
   Mark (play 2x)
D#|--------------------------|-------------------------------|
A#|------5-3---0-3-----------|-------------------------------|
F#|----------4-------4-2-0---|-2~~--0-2~~--0-4-2-0---0-------|
C#|------------------------4-|---------------------4---4-2-0-|
G#|--------------------------|-------------------------------|
B |-0--0---------------------|-------------------------------|

D#|-------------------------|--------------------------|
A#|-8---8-8-----8--8--8--7--|-(7)---7-7----7--7--7--7--|
F#|-0---0-0-----0--0--0--0--|-(0)---0-0----0--0--0--0--|
C#|-0---0-0-----0--0--0--0--|-(0)---0-0----0--0--0--0--|
G#|-x---x-x-----x--x--x--x--|-------x-x----x--x--x--x--|
B |-7---7-7-----7--7--7--7--|-(7)---7-7----7--7--7--7--|


   Myles (play 2x with Mark's part):
    B
C#|-5--5---------------------|-------------------------|
A#|-5--5---------------------|-------------------------|
F#|-5--5---------------------|-------------------------|
C#|-5--5---------------------|-------------------------|
F#|-5--5---------------------|-------------------------|
C#|--------------------------|-------------------------|
    
    F#
C#|-0---0-0-----0---0-0------|-------------------------|
A#|-0---0-0-----0---0-0------|-------------------------|
F#|-0---0-0-----0---0-0------|-------------------------|
C#|-0---0-0-----0---0-0------|-------------------------|
F#|-0---0-0-----0---0-0------|-------------------------|
C#|------------------------4-|------4-4----2--2-2---0--|




[Verse Riff] - Mark's part, Myles plays chords from Pre-Verse where noted 
    B                                F#
D#|---------------|----------------|---------------|--------------|
A#|-5-------------|-(5)------------|-8-------------|-(8)-8\7--0---|
F#|-0-------------|-(0)--0h5/7--5p0|-0-------------|-(0)--------0-|
C#|-x-------------|-(x)------------|-0-------------|-(0)----------|
G#|-3-------------|-(3)------------|-x-------------|--------------|
B |---------------|----------------|-7-------------|-(7)----------|
   "May this be your victory song.  A song for you when I am gone"

    B                                F#    
D#|---------------|----------------|---------------|--------------|
A#|-5-------------|-(5)------------|-8-------------|-(8)--8/10----|
F#|-0-------------|-(0)--0h5/7--5--|-0-------------|-(0)----------|
C#|-x-------------|-(x)------------|-0-------------|-(0)----------|
G#|-3-------------|-(3)------------|-x-------------|--------------|
B |---------------|----------------|-7-------------|-(7)----------|
"Reminding you of what you're meant to be"


[Verse Riff 2]
                B                                       F#
D#|-----------------|----------------|---------------|------------|
A#|-------------5---|-(5)------------|---------------|--8---------|
F#|---0----0----0---|-(0)------------|---0---0-------|--0---------|
C#|-------------x---|----------------|---------0-----|--0---------|
G#|-9---10---7--3---|-(3)------------|-3---5---2-----|--x---------|
B |-----------------|----------------|------------7--|--7---------|
   "A gift to bring you clarity      To show you that your destiny"

                B                                       F#
D#|-----------------|--------------|---------------|----------------|
A#|-------------5---|-(5)----------|---------------|-8-8-8-8-8-8-8--|
F#|---0----0----0---|-(0)----------|---0---0-------|-0-0-0-0-0-0-0--|
C#|-------------x---|--------------|---------0-----|-0-0-0-0-0-0-0--|
G#|-9---10---7--3---|-(3)----------|-3---5---2-----|-x-x-x-x-x-x-x--|
B |-----------------|--------------|------------7--|-7-7-7-7-7-7-7--|
 "Is not defined by what you've failed to see, no"




[PreChorus]

    Mark
D#|---------------------|---------------------|
A#|-5--5--5--5--5---7---|-8----8--8--8---10---|
F#|-0--0--0--0--0-------|-0----0--0--0---0----|
C#|-x--x--x--x--x---0---|-x----x--x--x--------|
G#|-3--3--3--3--3---5---|-7----7--7--7---7----|
B |---------------------|-------------------7-|
  |
  | Myles
C#|---------------------|---------------------|
A#|-5--5--5--5--5---7---|-8----8--8--8---10---|
F#|-0--0--0--0--0-------|-0----0--0--0---0----|
C#|-x--x--x--x--x---0---|-x----x--x--x--------|
F#|-5--5--5--5--5---7---|-9----9--9--9---11-0-|
C#|---------------------|---------------------|
   "May this lift you up  When you feel you'll" 


D#|-----------------------|----------------------|
A#|-12---12---12-12-12--7-|---7--7--7---7/8\7----|
F#|-12---12---12-12-12----|----------------------|
C#|-0----0----0--0--0---0-|---0--0--0------------|
G#|-10---10---10-10-10--5-|---5--5--5---5/7\5----|
B |-----------------------|----------------------|
  |
  | Myles
D#|-----------------------|----------------------|
A#|-12---12---12-12-12--7-|---7--7--7---7/8\7----|
F#|-0----0----0--0--0-----|----------------------|
C#|-0----0----0--0--0---0-|---0--0--0------------|
G#|-12---12---12-12-12--7-|---7--7--7---7/9\7----|
C#|-----------------------|----------------------|
   "fall again.         You cannot win,    oh"

    Mark
D#|---------------------|---------------------|
A#|-5--5--5--5--5---7---|-8----8--8--8---10---|
F#|-0--0--0--0--0-------|-0----0--0--0---0----|
C#|-x--x--x--x--x---0---|-x----x--x--x--------|
G#|-3--3--3--3--3---5---|-7----7--7--7---7----|
B |---------------------|-------------------7-|
  |
  | Myles
C#|---------------------|---------------------|
A#|-5--5--5--5--5---7---|-8----8--8--8---10---|
F#|-0--0--0--0--0-------|-0----0--0--0---0----|
C#|-x--x--x--x--x---0---|-x----x--x--x--------|
F#|-5--5--5--5--5---7---|-9----9--9--9---11-0-|
C#|---------------------|---------------------|
   "Hope these words are enough For you to be" 

    Mark
D#|-----------------------|-------------------------|
A#|-12---12---12-12-12--7-|---7--7------------------|
F#|-12---12---12-12-12----|-------------------------|
C#|-0----0----0--0--0---0-|---0--0------------------|
G#|-10---10---10-10-10--5-|---5--5---14--14--14--14-|
B |-----------------------|----------11--11--11--11-|
  |
  | Myles
D#|-----------------------|-------------------------|
A#|-12---12---12-12-12--7-|---7--7------------------|
F#|-0----0----0--0--0-----|-------------------------|
C#|-0----0----0--0--0---0-|---0--0------------------|
G#|-12---12---12-12-12--7-|---7--7---12--12--12--12-|
C#|-----------------------|----------10--10--10--10-|
   "strong, my friend!               Sometimes you"





Chorus - 
    Mark
D#|-----------------------|--------------------------|
A#|------8----8--8--8--8--|---8--8-------------------|
F#|------0----0--0--0--0--|---0--0-------------------|
C#|------0----0--0--0--0--|---0--0-------------------|
G#|------x----x--x--x--x--|---x--x----14--14--14--14-|
B |---7--7----7--7--7--7--|---7--7----11--11--11--11-|
  |
  | Myles
D#|-----------------------|--------------------------|
A#|---0--0----0--0--0--0--|---0--0-------------------|
F#|---0--0----0--0--0--0--|---0--0-------------------|
C#|---0--0----0--0--0--0--|---0--0-------------------|
G#|---7--7----7--7--7--7--|---7--7----12--12--12--12-|
C#|---5--5----5--5--5--5--|---5--5----10--10--10--10-|
   "fall before you rise,               sometimes you" 

   Mark
D#|------0----0--0--0----|-----------------------|
A#|------0----0--0--0--5-|---5--5----5--5--5-----|
F#|------0----0--0--0--0-|---0--0----0--0--0-----|
C#|------x----x--x--x--x-|---x--x----x--x--x-----|
G#|------7----7--7--7--3-|---3--3----3--3--3--14\|
B |---4--4----4--4--4----|--------------------11\|
  |
  | Myles
D#|-----------------------|----------------------|
A#|-----------------------|----------------------|
F#|--------------------5--|--5--5----5--5--5-----|
C#|---2--2----2--2--2--5--|--5--5----5--5--5-----|
G#|---4--4----4--4--4--5--|--5--5----5--5--5--12\|
C#|---2--2----2--2--2-----|-------------------10\|
   "lose it all to find.        You've gotta keep"

    Mark
D#|-----------------------|-----------------------|
A#|------8----8--8--8-----|---8--8----8--8--8--7--|
F#|------0----0--0--0-----|---0--0----0--0--0--x--|
C#|------0----0--0--0-----|---0--0----0--0--0--0--|
G#|------x----x--x--x--14\|---x--x----x--x--x--5--|
B |---7--7----7--7--7--11\|---7--7----7--7--7-----|
  |
  | Myles
D#|-----------------------|-----------------------|
A#|---0--0----0--0--0-----|---0--0----0--0--0--7--|
F#|---0--0----0--0--0-----|---0--0----0--0--0--0--|
C#|---0--0----0--0--0-----|---0--0----0--0--0--x--|
G#|---7--7----7--7--7--12\|---7--7----7--7--7--7--|
C#|---5--5----5--5--5--10\|---5--5----5--5--5-----|
   "fighting           And get back       up again"

    Mark
D#|-----------------------|-------------------------|
A#|---7--7----7--7--7--8--|-8--8--8--10-10-10-10----|
F#|---x--x----x--x--x--x--|-x--x--x--7--7--7--7-----|
C#|---0--0----0--0--0--0--|-0--0--0--0--0--0--0-----|
G#|---5--5----5--5--5--5--|-5--5--5-----------------|
B |-----------------------|-------------------------|
  |
  | Myles
D#|-----------------------|-------------------------|
A#|---7--7----7--7--7--7--|-7--7--7--7--7--7--7-----|
F#|---0--0----0--0--0--0--|-0--0--0--0--0--0--0-----|
C#|---x--x----x--x--x--x--|-x--x--x--x--x--x--x-----|
G#|---7--7----7--7--7--7--|-7--7--7--7--7--7--7-----|
C#|-----------------------|-------------------------|
                               "My champion"



Play PreVerse Riff again

Play Verse Riff 2 - Lyrics:

"You've lost so many times it hurts
But failures made are lessons learned
Cause in the end what you are will be much more
Than you were"


Play PreChorus, and Chorus again




Bridge - play 2x

D#|-------------------------|-------------------------|
A#|-------------------------|----------------14-14-14-|
F#|---13-13-13----15-15-15--|----16-16-16-------------|
C#|-------------------------|----------------11-11-11-|
G#|---11-11-11----13-13-13--|----14-14-14-------------|
B |-------------------------|-------------------------|
  |
  | Myles
C#|-------------------------|-------------------------|
A#|-------------------------|-------------------------|
F#|-------------------------|-------------------------|
C#|-7--7--7--7--7--7--7--7--|-7--7--7--7--7--7--7--7--|
F#|-x--x--x--x--x--x--x--x--|-x--x--x--x--x--x--x--x--|
C#|-7--7--7--7--7--7--7--7--|-7--7--7--7--7--7--7--7--|
          "Don't   ever       run    away"

    Mark
D#|-------------------------|------------------------|
A#|-------------------------|------------------------|
F#|-15-15-15-15-15-15-15-15-|-15-16-16-16---15-15-15-|
C#|-------------------------|------------------------|
G#|-13-13-13-13-13-13-13-13-|-13-14-14-14---13-13-13-|
B |-------------------------|------------------------|
  |
  | Myles
C#|-------------------------|-------------------------|
A#|-------------------------|-------------------------|
F#|-------------------------|-------------------------|
C#|-9--9--9--9--9--9--9--9--|-9--9--9--9--9--9--9--9--|
F#|-x--x--x--x--x--x--x--x--|-x--x--x--x--x--x--x--x--|
C#|-9--9--9--9--9--9--9--9--|-9--9--9--9--9--9--9--9--|
           "For   every   fear you face"

    Mark
D#|-------------------------|-------------------------|
A#|-------------------------|----------------14-14-14-|
F#|---13-13-13----15-15-15--|----16-16-16-------------|
C#|-------------------------|----------------11-11-11-|
G#|---11-11-11----13-13-13--|----14-14-14-------------|
B |-------------------------|-------------------------|
  |
  | Myles
C#|-------------------------|------------------------|
A#|-------------------------|------------------------|
F#|-------------------------|------------------------|
C#|-7--7--7--7--7--7--7--7--|----7--7----7--7--7-----|
F#|-x--x--x--x--x--x--x--x--|----x--x----x--x--x-----|
C#|-7--7--7--7--7--7--7--7--|----7--7----7--7--7-----|
          "You will      survive         and be much"

    Mark
D#|-------------------------|------------------------|
A#|-------------------------|------------------------|
F#|-15-15-15-15-15-15-15-15-|-15-16-16-16---15-15----|
C#|-------------------------|------------------------|
G#|-13-13-13-13-13-13-13-13-|-13-14-14-14---13-13----|
B |-------------------------|------------------------|
  |
  | Myles
C#|-------------------------|------------------------|
A#|-------------------------|------------------------|
F#|-------------------------|------------------------|
C#|-9--9--9--9--9--9--9--9--|----9--9----9--9--9-----|
F#|-x--x--x--x--x--x--x--x--|----x--x----x--x--x-----|
C#|-9--9--9--9--9--9--9--9--|----9--9----9--9--9-----|
    "more            Than you were,     oh"






Mark's Solo
D#|--------------------------|------------------------------|
A#|--------------------------|---------12-------------------|
F#|---------------------12---|-------12--14----14b16r-12----|
C#|-------------12-----------|----/14-------------------14--|
G#|----5---------------------|------------------------------|
B |-/5__----/12___---11___---|------------------------------|

D#|------------------15---17-|---19---19~~-----19br-17\15---------|
A#|-------------15-----------|------------------------------15-15-|
F#|-12----12-------12---14---|-16---16----------------------------|
C#|----------/12-------------|------------------------------------|
G#|----/10-------------------|------------------------------------|
B |--------------------------|------------------------------------|

D#|---------------------------------------------|
A#|------15-15-15-15--15-15--15-15-15h17p15--15-|
F#|-17b19-----------17-----15--------------17---|
C#|---------------------------------------------|
G#|---------------------------------------------|
B |---------------------------------------------|

D#|------------------------------------------|
A#|------------------------------------------|
F#|-17-16-14------------14+-16-14------14-16-|
C#|---------17--------17---------17--17------|
G#|-----------17-15-17-------------17--------|
B |------------------------------------------|

D#|--------------------------|------19-22-20---19-22-20-19------|
A#|--------------------------|----------------------------20-19-|
F#|---------16-19-17---16-19-|-17-------------------------------|
C#|-17---19------------------|----------------------------------|
G#|--------------------------|----------------------------------|
B |--------------------------|----------------------------------|

D#|-20~---20---20b22---b22r-|-19--------------------------------------|
A#|-------------------------|---20~--20-19h20p19-17-------------------|
F#|-------------------------|----------------------14br--14h16p14\12--|
C#|-------------------------|--------------------------14-----------14|
G#|-------------------------|-----------------------------------------|
B |-------------------------|-----------------------------------------|

D#|--------------------------------|-------------------------|
A#|--------------------15\13-------|-----10\8----------------|
F#|-12--12-12h14p12\11------12\10-9|-7-------9\7-------------|
C#|--------------------------------|------------9-7----5--4--|
G#|--------------------------------|-------------------------|
B |--------------------------------|-------------------------|

D#|--------------------------|-----------------------12-15-|
A#|--------------------------|-----------12--------13------|
F#|---------------------12---|-----/12-14--14--------------|
C#|-------------12-----------|-----------------------------|
G#|----5---------------------|-----------------------------|
B |-/5__----/12___---11___---|-----------------------------|

D#|-14~--15-14-15-14----14-15-|-17-------17b19--------|-17b19r--15~~-----|
A#|------------------15-------|-----------------------|------------------|
F#|---------------------------|-----------------------|------------------|
C#|---------------------------|-----------------------|------------------|
G#|---------------------------|-----------------------|------------------|
B |---------------------------|-----------------------|------------------|


Solo Rhythm part (Myles)
C#|-------------------------|------------------------|
A#|-------------------------|------------------------|
F#|----------0--------------|--------0------0--0--0--|
C#|----0--------------------|--2------------2--2--2--|
F#|-------------------------|------------------------|
C#|-3-----3---------------2-|-----2---------2--2--2--|

C#|------------------------|-------------------------|
A#|-0-----0--0--0--1-----0-|----0--------------------|
F#|-0-----0--0--0--0-----0-|----0--------------------|
C#|-0-----0--0--0--2-----0-|----0--------------------|
F#|-0-----0--0--0--0-----0-|----0--------------------|
C#|------------------------|-------5--7--9--7--5--4--|

C#|-------------------------|------------------------|
A#|-------------------------|------------------------|
F#|----------0--------------|--------0------0--0--0--|
C#|----0--------------------|--2------------2--2--2--|
F#|-------------------------|------------------------|
C#|-3-----3---------------2-|-----2---------2--2--2--|

C#|------------------------|-------------------------|
A#|-0-----0--0--0--1-----0-|----0--------------------|
F#|-0-----0--0--0--0-----0-|----0--------------------|
C#|-0-----0--0--0--2-----0-|----0--------------------|
F#|-0-----0--0--0--0-----0-|----0--------------------|
C#|------------------------|-------5--7--9--7--5--4--|

C#|-------------------------|------------------------|
A#|-------------------------|------------------------|
F#|----------0--------------|--------0------0--0--0--|
C#|----0--------------------|--2------------2--2--2--|
F#|-------------------------|------------------------|
C#|-3-----3---------------2-|-----2---------2--2--2--|

C#|------------------------|-------------------------|
A#|-0-----0--0--0--1-----0-|----0--------------------|
F#|-0-----0--0--0--0-----0-|----0--------------------|
C#|-0-----0--0--0--2-----0-|----0--------------------|
F#|-0-----0--0--0--0-----0-|----0--------------------|
C#|------------------------|-------5--7--9--7--5--4--|

C#|-------------------------|------------------------|
A#|-------------------------|------------------------|
F#|----------0--------------|--------0------0--0--0--|
C#|----0--------------------|--2------------2--2--2--|
F#|-------------------------|------------------------|
C#|-3-----3---------------2-|-----2---------2--2--2--|

C#|-------------------------|------------------------|
A#|-7--7--7--7--7--7--7--7--|-7--7--7--7-------------|
F#|-x--x--x--x--x--x--x--x--|-x--x--x--x-------------|
C#|-0--0--0--0--0--0--0--0--|-0--0--0--0-------------|
F#|-7--7--7--7--7--7--7--7--|-7--7--7--7-------------|
C#|-------------------------|------------------------|


Final Chorus - Play Chorus Riff 2x, starting in final solo measure


Play Preverse Riff 2x


Ending - 

    Mark 
D#|--------------------------|-----------------------------|------------|
A#|------5-3---0-3-----------|-----------------------------|------------|
F#|----------4-------4-2-0---|-2~~-0-2~~-0-4-2-0---0-------|-0----------|
C#|------------------------4-|-------------------4---4-2-0-|-0----------|
G#|--------------------------|-----------------------------|-x----------|
B |--------------------------|-----------------------------|-7----------|
  |
  | Myles
C#|--------------------------|-----------------------------|------------|
A#|--------------------------|-----------------------------|-0----------|
F#|--------------------------|-----------------------------|-0----------|
C#|--------------------------|-----------------------------|-0----------|
F#|--------------------------|-----------------------------|-7----------|
C#|-3-3----------------------|-2---------------------------|-5----------|


Key:
| /  slide up
| \  slide down
| h  hammer-on
| p  pull-off
| ~  vibrato
| +  pinch harmonic
| x  Mute note
| () Hold notes/chords from last measure
Suggest correction
Give kudos to tab author, rate the tab!
1 2 3 4 5
comments
print report bad tab
1 comment total.
0 reply
jjhand 11,131 Nov 09, 2016 06:47 PM

Please note that the live videos of "My Champion" on YouTube seem to be tuned down a fret from the recorded version on "The Last Hero". The recorded version is in the key of F# while the live version is played in F with guitars tuned down by a fret. If you wish to play along to the live version, tune the guitar accordingly.

guest
You may want to rate the tab now too:
select rating
Wanna post a correction for this tab? Suggest correction