Oops, an error
Loading. Please wait.

Never Born To Follow Bass Tab

version 1
version 1

Whole song

Interactive

595 views 3 this week
no commentswrite comment
1 2 3 4 5
1 last vote to show rating
add to favorites
launch autoscroll
font size
0
reset
guitar tuner
Autoscroll
slow
fast
+/-
esc
set tempo
stop
Help us to improve Ultimate-Guitar.com Take our survey!
×
Author
Difficulty
Tuning
intermediate
D# G# C# F# A# D#
Alter Bridge - 'Never Born to Follow'
Bonus Track from 'AB III' sessions
Tuning - 5 string 1/2 step flat
tabbed by jjhand for Ultimate-Guitar.com



   Verse - 6 beats per bar

   (0:06) - play 8x
Gb|------------------------|-------------------------|
Db|------------------------|-------------------------|
Ab|------------------------|-3----3------------------|
Eb|-1----1-----------------|-------------------------|
Bb|----------0-1-----------|----------3-3------------|




Chorus - play 2x with 2 endings

Gb|-------------------|---------------------------|-------------------|
Db|-------------------|---------------------------|-------------------|
Ab|-----5---------5---|---------------------------|----------3--3-----|
Eb|-------------------|-3--3--3-3--3-3--3--3-3--3-|-1--1--------------|
Bb|-3-------3--3----3-|---------------------------|-------------------|



Ending #1                              Ending #2
|---------------------------|         -------------------|
|---------------------------|         -------------------|
|---------5-----------3--2--|         -------------------|
|---3-5---------3-5---------|         -------------------|
|-3-----3-----3-----3-------|         ---3---------------|





Play Verse Again



Chorus 2

Gb|-------------------|---------------------------|-------------------|
Db|-------------------|---------------------------|-------------------|
Ab|-----5---------5---|---------------------------|----------3--3-----|
Eb|-------------------|-3--3--3-3--3-3--3--3-3--3-|-1--1--------------|
Bb|-3-------3--3----3-|---------------------------|-------------------|

|---------------------------|-------------------|--------------------------|
|---------------------------|-------------------|-------2------3------2----|
|---------5-----------------|-----5---------5---|--------------------------|
|---3-5---------3-5---------|-------------------|-3--3----3--3---3--3----3\|
|-3-----3-----3-----3-1--0--|-3-------3--3----3-|--------------------------|

-------------------|
-------------------|
----------3--3-----|
-1--1--------------|
-------------------|



Bridge - Play off of guitar licks this time

|-------------------|-------------------|
|-------------------|-------------------|
|-------------------|-------------------|
|------------6--6---|----------------0--|
|-------------------|-------------1-----|

then:
|-----------------------------|-----------------------------|
|-----------------------------|-----------------------------|
|---------5-------------------|-----------------------------|
|---3-5---------3-5---6---6---|---3-5---------3-5-------0---|
|-3-----3-----3-----3---------|-3-----3-0---3-----3-1-------|

|-----------------------------|-----------------------------|
|-----------------------------|-----------------------------|
|---------5-------------------|---------2-------------------|
|---3-5---------3-5---6---6---|---3-5---------3-5-------0---|
|-3-----3-----3-----3---------|-3-----3-----3-----3-1-------|



Bridge Pt 2 (2:33)
|---------------------------------|---------------------------------|
|---------------------------------|---------------------------------|
|---------------------------------|---------------------------------|
|-6-6-6-6-6-6-6-6-6p5-6-6-6-6-6-6-|---------------------------------|
|---------------------------------|-6/8-8-8-8-8-8-8-8p6-8-8-8-8-6---|

|---------------------------------|--------------------------------|
|---------------------------------|--------------------------------|
|---------------------------------|-3-3-3-3-3-3-3-3-3-3-3-3-3------|
|---------------------------------|--------------------------------|
|-3-3-3-3-3-3-3-3-3-3-3-3-3-3-3-3-|---------------------------0----|

|---------------------------------|---------------------------------|
|---------------------------------|---------------------------------|
|---------------------------------|---------------------------------|
|-6-6-6-6-6-6-6-6-6-6-6-6-6-8-8-8-|---------------------------------|
|---------------------------------|-6/8-8-8-8-8-8-8-8p6-8-8-8-8-6-6-|

|---------------------------------|---------------------------------|
|-------------------2---3---2-----|---------------------------------|
|-------5---5---5---------------5-|-3-3-3-3-3-3-3-3-3-3-3-3-3-3-3-3-|
|---------------------------------|---------------------------------|
|-3-3-3---3---3---3---3---3---3---|---------------------------------|



Play 2x: 6 beats per bar again here
|------------------------|-------------------------|
|------------------------|-------------------------|
|------------------------|-3----3------------------|
|-1----1-----------------|-------------------------|
|----------1-1-----------|----------4-3------------|




Play chorus again - similar to Chorus 2


Solo - 3:31
Gb|-------------------|---------------------------|----------------------------|
Db|-------------------|-----------------2---2-----|----------------------------|
Ab|-----5---------5---|---------------------------|------------3-3-3-3-3-3-3-3-|
Eb|-------------------|-3--3--3-3--3-3----3---3-3-|-1--1--1-1------------------|
Bb|-3-------3--3----3-|---------------------------|----------------------------|

|---------------------------|------------------------|--------------------------|
|---------------------------|------------------------|-------2------3------5----|
|---------5-----------3--2--|------------------------|--------------------------|
|---3-5---------3-5---------|------------------------|-3--3----3--3---3--3----3\|
|-3-----3-----3-----3-------|-3--3--3-3--3-3--3--3-3-|--------------------------|

----------------------------|
----------------------------|
------------3-3-3-3-3-3-3-3-|
-1--1--1-1------------------|
----------------------------|




Ending
|-----------------------------|-----------------------------|
|-----------------------------|-----------------------------|
|---------5-------------------|-------------------------7---|
|---3-5---------3-5---6---6---|---3-5---------3-5---8-------|
|-3-----3-----3-----3---------|-3-----3-0---3-----3---------|

|-----------------------------|---------------------------------|
|-----------------------------|---------------------------------|
|---------5-------------------|---------2---------------7-7-7-7-|
|---3-5---------3-5---6---6---|---3-5---------3-5---8-----------|
|-3-----3-----3-----3---------|-3-----3-----3-----3-------------|



Suggest correction
Give kudos to tab author, rate the tab!
1 2 3 4 5
comments
print report bad tab
guest
You may want to rate the tab now too:
select rating
Wanna post a correction for this tab? Suggest correction