Oops, an error
Loading. Please wait.

Open Your Eyes Tab

version 1
version 1

Acoustic

Interactive

19,965 views 30 this week
6 commentsread comments
1 2 3 4 5
accurate
x 7
add to favorites
launch autoscroll
font size
0
reset
how to read this tab
guitar tuner
Tab Pro tools
  • play this tab
  • loop segment
  • change instrument
  • show fretboard
  • metronome
×
Best way to learn
"Open Your Eyes"
Autoscroll
slow
fast
+/-
esc
set tempo
stop
Contributor
Band- Alter Bridge
Song- Open Your Eyes Acoustic
Tuning- DADADD

4/4
  INTRO
  E E E E  E E E E E E E E E E E E E E E E E E E E E E E E E E
|-0-0-0-0--0-0-0-0-0-0-0-0-0-0-0-0-0-0-0-0-0-0-0-0-0-0-0-0-0-0----|
|-0-0-0-0--0-0-0-0-0-0-0-0-0-0-0-0-0-0-0-0-0-0-0-0-0-0-0-0-0-0----|
|-0-0-0-0--0-7-7S9-9-9-9-7-5-5-0-7-7S9-9-9-9-7-7-9-9-5-5-5-5-5----|
|-0-0-0-0--0-0-0-0-0-0-0-0-0-0-0-0-0-0-0-0-0-0-0-0-0-0-0-0-0-0----|
|-0-0-0-0--0-7-7-9-9-9-9-7-5-5-0-7-7-9-9-9-9-7-7-9-9-5-5-5-5-5----|
|-0-0-0-0--0-0-0-0-0-0-0-0-0-0-0-0-0-0-0-0-0-0-0-0-0-0-0-0-0-0----|


  E E E E E E E E    E  E E E E E E E   E E E E E E
|-0-0-0-0-0-0-0-0-|--0--0-0-0-0-0-0-0-|-0-0-0-0-0-0----|
|-0-0-0-0-0-0-0-0-|--0--0-0-0-0-0-0-0-|-0-0-0-0-0-0----|
|-0-7-7S9-9-9-9-7S|=12-12-0-5-5-7-7-7-|-7-5-5-4S5-5----|
|-0-0-0-0-0-0-0-0-|--0--0-0-0-0-0-0-0-|-0-0-0-0-0-0----| Play this part twice
|-0-7-7-9-9-9-9-7-|-12-12-0-5-5-7-7-7-|-7-5-5-4-5-5----|
|-0-0-0-0-0-0-0-0-|--0--0-0-0-0-0-0-0-|-0-0-0-0-0-0----|

VERSE
  E E E  E E E E   E E E
|-0-0-0----------------5----|
|-0-0-0--------0-------5----|
|-0-0-4----4-----------5----|
|-0-0-4------4---------5----|
|-0-0-2--2-----------5-5----|
|-0-0-0------------5---5----|


  E E E E E E E E   E E E E E E E E   E  E  E
|-0-0-0-0-0-0-0-0-|-0-0-0-0-0-0-0-0-|-0--0--0----|
|-0-0-0-0-0-0-0-0-|-0-0-0-0-0-0-0-0-|-0--0--0----|
|-7-7S9-9-9-9-7-5-|-5-0-7-7-9-9-9-9-|-7S12-12----|
|-0-0-0-0-0-0-0-0-|-0-0-0-0-0-0-0-0-|-0--0--0----|
|-7-7-9-9-9-9-7-5-|-5-0-7-7-9-9-9-9-|-7-12-12----|
|-0-0-0-0-0-0-0-0-|-0-0-0-0-0-0-0-0-|-0--0--0----|


  E E E  E E E E  E   E E
|-0-0-0-------------|---5----|
|-0-0-0--------0----|---5----|
|-0-0-4----4--------|---5----|
|-0-0-4------4------|---5----|
|-0-0-2--2----------|-5-5----|
|-0-0-0-----------5-|---5----|


  E E E E E E E E    E  E E E E E E E   E E E E E E
|-0-0-0-0-0-0-0-0-|--0--0-0-0-0-0-0-0-|-0-0-0-0-0-0----|
|-0-0-0-0-0-0-0-0-|--0--0-0-0-0-0-0-0-|-0-0-0-0-0-0----|
|-0-7-7S9-9-9-9-7S|=12-12-0-5-5S7-7-7-|-7-5-5-4S5-5----|
|-0-0-0-0-0-0-0-0-|--0--0-0-0-0-0-0-0-|-0-0-0-0-0-0----|
|-0-7-7-9-9-9-9-7-|-12-12-0-5-5-7-7-7-|-7-5-5-4-5-5----|
|-0-0-0-0-0-0-0-0-|--0--0-0-0-0-0-0-0-|-0-0-0-0-0-0----|


  E E E     E     E   E E E   E     E
|-0-0-0-----5-----0---0-0-0---0-----5----|
|-0-0-0-----5-----0---0-0-0---0-----5----|
|-0-0-4-----5-----0---5S7S5---4-----5----|
|-0-0-4-----5-----0---0-0-0---4-----5----| You can figure out the Strummin pattern from 
to it(It\'s easy)
|-0-0-2-----5-----0---0-0-0---2-----5----|
|-0-0-0-----5-----0---0-0-0---0-----5----|

CHORUS
  E E E  E   E  E E E E   E   E    E    E
|-5-0-0--0---0------------0---5----0----0----|
|-5-0-0--0---0------------0---5----0----0----|
|-5-0-0--7---7------------4---5----0----0----|
|-5-0-0--7---7------------4---5----7----5----|            (No Srtummin Pattern)
|-5-0-0--5---4--4h5p4-0---2---5----7----5----|
|-5-0-0--0---0------------0---5----7----5----|


  E E E    E   E    E E E   E    E    E
|-5-0-0----0---0----------|------0----5----|
|-5-0-0----0---0----------|------0----5----|
|-5-0-0----7---7----------|------4----5----|
|-5-0-0----7---7----------|------4----5----|
|-5-0-0----5---4----4h5p4-|-0----2----5----|
|-5-0-0----0---0----------|------0----5----|

VERSE 2
  E E E E E E E E   E E E E E E E E   E E E E E E E E   E E
|-0-0-0-0-0-0-0-0-|-0-0-0-0-0-0-0-0-|-0-0-0-0-0-0-0-0-|-0-0----|
|-0-0-0-0-0-0-0-0-|-0-0-0-0-0-0-0-0-|-0-0-0-0-0-0-0-0-|-0-0----|
|-0-7-7S9-9-9-9-7-|-5-5-0-7-7S9-9-9-|-9-7-7-9-9-5-5-5-|-5-5----|
|-0-0-0-0-0-0-0-0-|-0-0-0-0-0-0-0-0-|-0-0-0-0-0-0-0-0-|-0-0----|
|-0-7-7-9-9-9-9-7-|-5-5-0-7-7-9-9-9-|-9-7-7-9-9-5-5-5-|-5-5----|
|-0-0-0-0-0-0-0-0-|-0-0-0-0-0-0-0-0-|-0-0-0-0-0-0-0-0-|-0-0----|


  E E E E E E E E    E  E E E E E E E   E E E E E E
|-0-0-0-0-0-0-0-0-|--0--0-0-0-0-0-0-0-|-0-0-0-0-0-0----|
|-0-0-0-0-0-0-0-0-|--0--0-0-0-0-0-0-0-|-0-0-0-0-0-0----|
|-0-7-7S9-9-9-9-7S|=12-12-0-5-5S7-7-7-|-7-5-5-4S5-5----|
|-0-0-0-0-0-0-0-0-|--0--0-0-0-0-0-0-0-|-0-0-0-0-0-0----|
|-0-7-7-9-9-9-9-7-|-12-12-0-5-5-7-7-7-|-7-5-5-4-5-5----|
|-0-0-0-0-0-0-0-0-|--0--0-0-0-0-0-0-0-|-0-0-0-0-0-0----|


  E E E   E E E E   E   E E
|-0-0-0---------------|---5----|
|-0-0-0---------0-----|---5----|
|-0-0-4-----4---------|---5----|
|-0-0-4-------4-------|---5----|
|-0-0-2---2-----------|-5-5----|
|-0-0-0-------------5-|---5----|


  E E E E E E E E   E E E E E E E E   E E E E E E E E   E E
|-0-0-0-0-0-0-0-0-|-0-0-0-0-0-0-0-0-|-0-0-0-0-0-0-0-0-|-0-0----|
|-0-0-0-0-0-0-0-0-|-0-0-0-0-0-0-0-0-|-0-0-0-0-0-0-0-0-|-0-0----|
|-0-7-7S9-9-9-9-7-|-5-5-0-7-7S9-9-9-|-9-7-7-9-9-5-5-5-|-5-5----|
|-0-0-0-0-0-0-0-0-|-0-0-0-0-0-0-0-0-|-0-0-0-0-0-0-0-0-|-0-0----|
|-0-7-7-9-9-9-9-7-|-5-5-0-7-7-9-9-9-|-9-7-7-9-9-5-5-5-|-5-5----|
|-0-0-0-0-0-0-0-0-|-0-0-0-0-0-0-0-0-|-0-0-0-0-0-0-0-0-|-0-0----|


  E E E   E E E E   E   E E
|-0-0-0---------------|---5----|
|-0-0-0---------0-----|---5----|
|-0-0-4-----4---------|---5----|
|-0-0-4-------4-------|---5----|
|-0-0-2---2-----------|-5-5----|
|-0-0-0-------------5-|---5----|


  E E  E E E E E E    E  E E E E E E E   E E E E E E
|-0-0--0-0-0-0-0-0-|--0--0-0-0-0-0-0-0-|-0-0-0-0-0-0------|
|-0-0--0-0-0-0-0-0-|--0--0-0-0-0-0-0-0-|-0-0-0-0-0-0------|
|-0-7-7-9-9-9-9-7S|=12-12-0-5-5S7-7-7-|-7-5-5-4S5-5-------|
|-0-0--0-0-0-0-0-0-|--0--0-0-0-0-0-0-0-|-0-0-0-0-0-0------|
|-0-7--7-9-9-9-9-7-|-12-12-0-5-5-7-7-7-|-7-5-5-4-5-5------|
|-0-0--0-0-0-0-0-0-|--0--0-0-0-0-0-0-0-|-0-0-0-0-0-0------|


  E E E    E    E    E E E      E    E
|-0-0-0----5----0----0-0-0-|----0----5----|
|-0-0-0----5----0----0-0-0-|----0----5----|
|-0-0-4----5----0----5S7S5-|----4----5----|
|-0-0-4----5----0----0-0-0-|----4----5----|       (No Srtummin Pattern)
|-0-0-2----5----0----0-0-0-|----2----5----|
|-0-0-0----5----0----0-0-0-|----0----5----|

CHORUS
  E E E  E    E    E E E   E   E   E   E   E
|-5-0-0--0----0----------|-----0---5---0---0----|
|-5-0-0--0----0----------|-----0---5---0---0----|
|-5-0-0--7----7----------|-----4---5---0---0----|
|-5-0-0--7----7----------|-----4---5---7---5----|     (No Srtummin Pattern)
|-5-0-0--5----4----4h5p4-|-0---2---5---7---5----|
|-5-0-0--0----0----------|-----0---5---7---5----|


  E E E  E    E   E E E   E   E    E
|-5-0-0--0----0---------|-----0----5----|
|-5-0-0--0----0---------|-----0----5----|
|-5-0-0--7----7---------|-----4----5----|
|-5-0-0--7----7---------|-----4----5----|
|-5-0-0--5----4---4h5p4-|-0---2----5----|
|-5-0-0--0----0---------|-----0----5----|

BRIDGE 1
  E  E E E E  E E E    E  E E E E  E    E E E E
|-0---------------5----0-----------0---------------|
|-0--------0------5----0--2h4p2-0--2----2h4p2-0----|
|-4----4----------5----0-----------0---------------|
|-4------4--------5----0-----------0---------------|    (No Srtummin Pattern)
|-2--2----------5-5----0-----------0---------------|
|-0-----------5---5----0-----------0---------------|

BRIDGE 2
               PM
  E     E    E E  E      E E  E     E E
|-0-----5----0-0--0------0-0--0------------|
|-0-----5----0-0--0------0-0--0------------|
|-4-----5----0-0--5------0-0--5------------|
|-4-----5----0-0--0------0-0--0------------|        (No Srtummin Pattern)
|-2-----5----0-0--5------0-0--5------------|
|-0-----5----0-0--0------0-0--0-----5S9----|

BRIDGE 3
  E E E E E  E  E  E  E  E  E  E  E  E  E  E    E    E    E
|-0-0-0-0-0--0--0--0--0--0--0--0--0--0--0--0----0----0----5----|
|-0-0-0-0-0--0--0--0--0--0--0--0--0--0--0--0----0----0----5----|
|-7-7-7-7-9-10-12-12-14-14-10-10-10-10-10--0----0----4----5----|
|-7-7-7-7-0--0--0--0--0--0--0--0--0--0--0--7----5----4----5----| The srtummin mite vary 
but it\'s pretty close
|-5-5-5-5-9-10-12-12-14-14-10-10-10-10-10--7----5----2----5----|
|-0-0-0-0-0--0--0--0--0--0--0--0--0--0--0--7----5----0----5----|

CHORUS
  E E E  E    E     E E E   E   E   E   E   E
|-5-0-0--0----0-----------|-----0---5---0---0----|
|-5-0-0--0----0-----------|-----0---5---0---0----|
|-5-0-0--7----7-----------|-----4---5---0---0----|
|-5-0-0--7----7-----------|-----4---5---7---5----|
|-5-0-0--5----4-----4h5p4-|-0---2---5---7---5----|
|-5-0-0--0----0-----------|-----0---5---7---5----|


  E E E   E   E   E E E   E    E    E
|-5-0-0---0---0---------|------0----5----|
|-5-0-0---0---0---------|------0----5----|
|-5-0-0---7---7---------|------4----5----|
|-5-0-0---7---7---------|------4----5----|
|-5-0-0---5---4---4h5p4-|-0----2----5----|
|-5-0-0---0---0---------|------0----5----|

OUTRO
  E E E E E E E E   E E E E E E E E   E E E E E E E E   E E E E E E
|-0-0-0-0-0-0-0-0-|-0-0-0-0-0-0-0-0-|-0-0-0-0-0-0-0-0-|-0-0-0-0-0-0---|
|-0-0-0-0-0-0-0-0-|-0-0-0-0-0-0-0-0-|-0-0-0-0-0-0-0-0-|-0-0-0-0-0-0---|
|-0-0-0-0-0-7-7S9-|-9-9-9-7-5-5-0-7-|-7S9-9-9-9-7-7-9-|-9-5-5-5-5-5---|
|-0-0-0-0-0-0-0-0-|-0-0-0-0-0-0-0-0-|-0-0-0-0-0-0-0-0-|-0-0-0-0-0-0---|
|-0-0-0-0-0-7-7-9-|-9-9-9-7-5-5-0-7-|-7-9-9-9-9-7-7-9-|-9-5-5-5-5-5---|
|-0-0-0-0-0-0-0-0-|-0-0-0-0-0-0-0-0-|-0-0-0-0-0-0-0-0-|-0-0-0-0-0-0---|


  E E E E E E E E    E  E E E E E E E   E E E E E E
|-0-0-0-0-0-0-0-0-|--0--0-0-0-0-0-0-0-|-0-0-0-0-0-0----|
|-0-0-0-0-0-0-0-0-|--0--0-0-0-0-0-0-0-|-0-0-0-0-0-0----|
|-0-7-7S9-9-9-9-7S|=12-12-0-5-5-7-7-7-|-7-5-5-4S5-5----|
|-0-0-0-0-0-0-0-0-|--0--0-0-0-0-0-0-0-|-0-0-0-0-0-0----| Let the last note ring out
|-0-7-7-9-9-9-9-7-|-12-12-0-5-5-7-7-7-|-7-5-5-4-5-5----|
|-0-0-0-0-0-0-0-0-|--0--0-0-0-0-0-0-0-|-0-0-0-0-0-0----|

ENJOY!!!
comments
print report bad tab
6 comments total. Showing first comments.
0 reply
DJ_Inferno2000 wrote on April 12 2005, 12:00 am

OH MAN !!!! YOU GOT THAT BRIDGE AND IT WAS SOO SIMPLE!!!! I CANT PLAY FOR ***!!!! :p

0 reply
DJ_Inferno2000 wrote on April 12 2005, 12:00 am

s.h.i.t

0 reply
DJ_Inferno2000 wrote on April 12 2005, 12:00 am

hmmm so u can say *** by typing s.h.i.t

I want to post or [tab]
guest
You may want to rate the tab now too:
select rating
Please do not post tabs as comments. Select "correction" instead!