Oops, an error
Loading. Please wait.

Open Your Eyes Tab

version 1
version 1

Solo

Interactive

90,745 views 156 this week
7 commentsread comments
1 2 3 4 5
accurate
x 11
add to favorites
launch autoscroll
font size
0
reset
how to read this tab
guitar tuner
Tab Pro tools
  • play this tab
  • loop segment
  • change instrument
  • show fretboard
  • metronome
×
Best way to learn
"Open Your Eyes"
Autoscroll
slow
fast
+/-
esc
set tempo
stop
Contributor
"Open Your Eyes" - Alter Bridge
Tab by Dan (DH Guitarchitect) @ mark-tremonti.com and alterbridgeband.net
open d5 tuning
low to high DADadd

The timing and strumming patterns can be worked out from these chords if not tabbed out 100%
in full or correctly

intro
d  --0--0-0-0-0-0-0-0---0--0-0-0-0-0-0-0-0-0--0--0-0-0-0-0-0-(7)--0-0-0-0-0-0-0-0-
d  --0--0-0-0-0-0-0-0---0--0-0-0-0-0-0-0-0-0--0--0-0-0-0-0-0-(7)--0-0-0-0-0-0-0-0-
a  --0--7/9-9-9-7-0-5---0--7/9-9-9-7-0-7\5-5--0--7/9-9-9-7-0- 5---0-5/7-7-7-5-4/5-
D  --0--0-0-0-0-0-0-0---0--0-0-0-0-0-0-0-0-0--0--7/9-9-9-7-0- 5---0-0-0-0-0-0-0-0-
A  --0--7/9-9-9-7-0-5---0--7/9-9-9-7-0-7\5-5--0--0-0-0-0-0-0- 0---0-5/7-7-7-5-4/5-
D  --0--0-0-0-0-0-0-0---0--0-0-0-0-0-0-0-0-0--0--7/9-9-9-7-0- 5---0-0-0-0-0-0-0-0-



verse
d  --0---5---0-0-0-0-0-0-0---0-0-0-0-0-0-0-
d  --0---5---0-0-0-0-0-0-0---0-0-0-0-0-0-0-
a  --4---5---7/9-9-9-7-0-5---7/9-9-9-7-0-12
D  --4---5---0-0-0-0-0-0-0---0-0-0-0-0-0-0-
A  --2---5---7/9-9-9-7-0-5---7/9-9-9-7-0-12
D  --0---5---0-0-0-0-0-0-0---0-0-0-0-0-0-0-

d  --0---5---0-0-0-0-0-0-0--0---0-0-0-0-0-0-0-0-
d  --0---5---0-0-0-0-0-0-0--0---0-0-0-0-0-0-0-0-
a  --4---5---7/9-9-9-7-0-12-12--5/7-7-7-5-4-5-5-
D  --4---5---0-0-0-0-0-0-0--0---0-0-0-0-0-0-0-0-
A  --2---5---7/9-9-9-7-0-12-12--5/7-7-7-5-4-5-5-
D  --0---5---0-0-0-0-0-0-0--0---0-0-0-0-0-0-0-0-

d  --0---5---0-----------0---5------------------
d  --0---5---0---5/7\5---0---5------------------
a  --4---5---0-----------4---5------------------
D  --4---5---0-----------4---5------------------
A  --2---5---0-----------2---5------------------
D  --0---5---0-----------0---5------------------


chorus
d  --0---0----------------------0----5-
d  --0---0----------------------0----5-
a  --7---7----------------------0----5-
D  --7---7------------9-----5---7----5-
A  --5---4--(4h5p4p0)-9-----5---7----5-
D  --0---0------------9-----5---7----5-

d  --0---0-----------------------------
d  --0---0-----------------------------
a  --7---7-----------------------------
D  --7---7------------9-----5----------
A  --5---4--(4h5p4p0)-9-----5----------
D  --0---0------------9-----5----------

(intro)

verse 2

d  --0---5---0-0-0-0-0-0-0---0-0-0-0-0-0-0-0-0--
d  --0---5---0-0-0-0-0-0-0---0-0-0-0-0-0-0-0-0--
a  --4---5---7/9-9-9-7-0-5---7/9-9-9-7-0-7\5-5--
D  --4---5---0-0-0-0-0-0-0---0-0-0-0-0-0-0-0-0--
A  --2---5---7/9-9-9-7-0-5---7/9-9-9-7-0-7\5-5--
D  --0---5---0-0-0-0-0-0-0---0-0-0-0-0-0-0-0-0--


d  --0---5---0-0-0-0-0-0-0--0---0-0-0-0-0-0-0-0-
d  --0---5---0-0-0-0-0-0-0--0---0-0-0-0-0-0-0-0-
a  --4---5---7/9-9-9-7-0-12-12--5/7-7-7-5-4-5-5-
D  --4---5---0-0-0-0-0-0-0--0---0-0-0-0-0-0-0-0-
A  --2---5---7/9-9-9-7-0-12-12--5/7-7-7-5-4-5-5-
D  --0---5---0-0-0-0-0-0-0--0---0-0-0-0-0-0-0-0-

d  --0---5---0-----------0---5------------------
d  --0---5---0---5/7\5---0---5------------------
a  --4---5---0-----------4---5------------------
D  --4---5---0-----------4---5------------------
A  --2---5---0-----------2---5------------------
D  --0---5---0-----------0---5------------------

(chorus)

clean bridge
d  --0-------5---0------------0-----------
d  --0---0---5---0---2h4p2-0--2---2h4h2-0-
a  --4----4--5---0------------0-----------
D  --4-----4-5---0------------0-----------
A  --2-------5---0------------0-----------
D  --0-------5---0------------0-----------

distorted bridge
d  --0---5--------0-0-------0-0-----
d  --0---5--------0-0-------0-0-----
a  --4---5--------5-5-------5------             x2
D  --4---5---0-0-00-0--0-0-00-0-----
A  --2---5---0-0-05-5--0-0-05-5-----
D  --0---5---0-0-00-0--0-0-00-0--5/-
              p.m       p.m

solo
d  --12b12v---14b14v---16b-16-17-19-21p16h17p16\17-
d  ------------------------------------------------
a  ------------------------------------------------
D  ------------------------------------------------
A  ------------------------------------------------
D  ------------------------------------------------

d  ------------------------------------------------------------------------
d  --19-16--------16-19-16--------16-17-16--------16-17-16--------16-17-16-
a  -------17-16-17--------17-16-17--------17-16-17--------17-16-17---------
D  ------------------------------------------------------------------------
A  ------------------------------------------------------------------------
D  ------------------------------------------------------------------------

d  -----------------------------------------------------------------------------------
d  --16-19-16--16-21-16--------16-21-16--------14-16-14--------14-16-14--------14--16-
a  17--------17--------17-16-17--------17-16-17--------17-16-17--------17-16-17-------
D  -----------------------------------------------------------------------------------
A  -----------------------------------------------------------------------------------
D  -----------------------------------------------------------------------------------

d  --------------------------19-------------------------------
d  --16-17-19-17-16-17--16-17--17-16--16-17-19-17-16--16-17v--
a  -------------------19------------19--------------19--------
D  -----------------------------------------------------------
A  -----------------------------------------------------------
D  -----------------------------------------------------------




d  -----------------------------------------------------------
d  --19-17-16-------------------------------------------------
a  ----------17-19-17-16--------19-17-16----------------------
D  ---------------------19-17-16--------19-17-16-19-17--------
A  ----------------------------------------------------19-17--
D  -----------------------------------------------------------

d  -------------------------------------------------------------22b 22b 22b-\slide
d  ----------------------------19-------------------------------------------
a  ----------------19-17-16-17---16-17-19-17----16-17-19-16v----------------
D  -------19-16-17---------------------------19-----------------------------
A  --16-17------------------------------------------------------------------
D  -------------------------------------------------------------------------

radio edit so far has this at the end of the solo (with whammy bar at bends) 
d  ---------19------    -----------19---------
d  -----------------    ----------------------
a  ----------------- or ----------------------
D  -----------------    ----------------------
A  --7b--9---------    ----------------------
D  -----------------    --14b--16------------   then a pick slide

rhythm during solo

d  --0---5---0-0-----------
d  --0---5---0-0-----------
a  --4---5---7-7-----------    x 2
D  --4---5---7-7---9---5---
A  --2---5---5-4---9---5---
D  --0---5---0-0---9---5---

(chorus)

(intro/outro)then:

d  --0--0-0-0-0-0-0----0-0-0-0-0-0-0-0-
d  --0--0-0-0-0-0-0----0-0-0-0-0-0-0-0-
a  --0--7/9-9-9-7-12---0-5/7-7-7-5-4/5-
D  --0--0-0-0-0-0-0----0-0-0-0-0-0-0-0-
A  --0--7/9-9-9-7-12---0-5/7-7-7-5-4/5-
D  --0--0-0-0-0-0-0----0-0-0-0-0-0-0-0-
comments
print report bad tab
7 comments total. Showing first comments.
0 reply
dhguitarchitect wrote on June 21 2004, 12:00 am

this is my tab. i think it's pretty good. but whoever submitted it obviously didnt realise i have made some changes so the tab needs editing

0 reply
dhguitarchitect wrote on June 25 2004, 12:00 am

the edited tab can be found at the websites that are at the top of the tab because i am unable to do anything about the errors in this one.

0 reply
t0ffi wrote on July 23 2004, 12:00 am

how do you get your G string to become an A, Mine always stops at g# and then its not there anymone =). please tell me how in a private message

I want to post or [tab]
guest
You may want to rate the tab now too:
select rating
Please do not post tabs as comments. Select "correction" instead!