Oops, an error
Loading. Please wait.

Open Your Eyes Tab

version 4
version 4

Interactive

6,558 views 3 this week
no commentswrite comment
1 2 3 4 5
please rate
add to favorites
launch autoscroll
font size
0
reset
how to read this tab
guitar tuner
Autoscroll
slow
fast
+/-
esc
set tempo
stop
Help us to improve Ultimate-Guitar.com Take our survey!
×
Author
Difficulty
advanced
Gtr I (D A D A D D) - 'Tremonti distorted'
Gtr II (D A D A D D) - 'Tremonti clean'
Gtr III (D A D A D D) - 'Overdub'


            Moderate Rock Q=81
                  $
                  D
 4/4
            Gtr I
  H..       S S   S S S S S S S S E S S E S S
|---------------|-0---0-0---0---0-0-0-0-0-----|
|---------------|-0---0-0---0---0-0-0-0-0-----|
|-----------7-7-|-7s9-9-9s7-7s5-5-5-0-0-0-7-7-|
|-----------0-0-|-0---0-0---0---0-0-0-0-0-0-0-|
|-----------0-0-|-7s9-9-9s7-7s5-5-5-0-0-0-0-0-|
|-----------0-0-|-0---0-0---0---0-0-0-0-0-0-0-|


  S S S S S S S S S S E S S S S
|-0---0-0---0-0-0---0-0-0-0-------|
|-0---0-0---0-0-0---0-0-0-0-------|
|-7s9-9-9s7-7-0-9s5-5-5-5-5-7-7---|
|-0---0-0---0-0-0---0-0-0-0-0-0---|
|-7s9-9-9s7-7-0-9s5-5-5-5-5-0-0---|
|-0---0-0---0-0-0---0-0-0-0-0-0---|


                                                        Verses 1 & 2
  Bm              Gsus2      Asus2           D5          Bmadd9
                                                         Gtr II
  S S S S S S S S Q  E S S   S S S S S S S S E. S Q       H    +Q.   E
|-0---0-0---0-0-0-0--0-0-0-|-0---0-0-0-0---0-0-------||--^0----(0)------|
|-0---0-0---0-0-0-7--7-0-0-|-0---0-0-0-0---0-0-------||o-^0----(0)------|
|-7s9-9-9s7-7-0-0-0--0-0-0-|-5s7-7-7-0-4s5-5-5-------||--^4----(4)------|
|-0---0-0---0-0-0-0--0-0-0-|-0---0-0-0-x---0-0-------||--^4----(4)---0--|
|-x---x-x---x-0-0-x--x-0-0-|-x---x-x-0-4s5-5-5-------||o-^2----(2)---0--|
|-7s9-9-9s7-7-0-0-5--5-0-0-|-5s7-7-7-0-0---0-0--0-0--||-----------------|


                      1.
  G5                   D
  E S S +Q   +Q.   E   S S S S S S S S Q.   S S
|-----5-(5)--(5)-----|-0---0-0---0---0-0--------|
|-----5-(5)--(5)-----|-0---0-0---0---0-0--------|
|-----5-(5)--(5)-----|-7s9-9-9s7-7s5-5-5----7-7-|
|-----5-(5)--(5)---0-|-0---0-0---0---0-0----0-0-|
|---5--------------0-|-7s9-9-9s7-7s5-5-5----0-0-|
|-5------------------|-0---0-0---0---0-0----0-0-|


  S S S S S S  S  S  Q.   S S
|-0---0-0---0-----0--0----------||
|-0---0-0---0-----0--0---------o||
|-7s9-9-9s7-7s12-12-12----0-0---||
|-0---0-0---0-----0--0----0-0---||
|-7s9-9-9s7-7s12-12-12----0-0--o||
|-0---0-0---0-----0--0----0-0---||


  2.
  Bm              Gsus2      Asus4           D5
  S S S S S S S S Q  E S S   S S S S S S S S Q  S S S S
|-0---0-0---0-----0--0-----|-----0-0---------0--0-0-0-0-|
|-0---0-0---0-----7--7-----|-----0-0---------0--0-0-0-0-|
|-7s9-9-9s7-7-0-0-0--0-0-0-|-5s7-7-7-0-4s5-5-5--5-5-0-0-|
|-0---0-0---0-0-0-0--0-0-0-|-0---0-0-0-x---0-0--0-0-0-0-|
|-x---x-x---x-0-0-x--x-0-0-|-x---x-x-0-4s5-5-5--5-5-0-0-|
|-7s9-9-9s7-7-0-0-5--5-0-0-|-5s7-7-7-0-------0--0-0-0-0-|


  Bmadd9                  Gsus2                   D5
  Q  E. S S S E S S S S   Q  E. S S S E S S S S   Q  E. S +S  S S S S S S S
|-0--0--0-0-0-0-0-0-0-0-|-0--0--0-0-0-0-0-0-0-0-|-0--0--0-(0)-0-0-0-0---0-0-|
|-0--0--0-0-0-0-0-0-0-0-|-5--5--5-5-5-5-5-5-0-0-|-0--0--0-(0)-0-0-0-0---0-0-|
|-4--4--4-4-4-4-4-4-0-0-|-0--0--0-0-0-0-0-0-0-0-|-0--0--0-(0)-0-0-0-5s7-0-0-|
|-4--4--4-4-4-4-4-4-0-0-|-0--0--0-0-0-0-0-0-0-0-|-0--0--0-(0)-0-0-0-0---0-0-|
|-2--2--2-2-2-2-2-2-0-0-|-x--x--x-x-x-x-x-x-0-0-|-0--0--0-(0)-0-0-0-5s7-0-0-|
|-----------------------|-5--5--5-5-5-5-5-5-0-0-|-0--0--0-(0)-0-0-0-0-------|


  Bmadd9                    Gsus2
                                        Gtr I
  Q  E. S +S  S E S S S S   H.      +S  S S S
|-0--0--0-(0)-0-0-0-0-0-0-|-0-------(0)-------||
|-0--0--0-(0)-0-0-0-0-0-0-|-5-------(5)-------||
|-4--4--4-(4)-4-4-4-4-0-0-|-0-------(0)-0-0-0-||
|-4--4--4-(4)-4-4-4-4-0-0-|-0-------(0)-0-0-0-||
|-2--2--2-(2)-2-2-2-2-0-0-|-x-------(x)-0-0-0-||
|-------------------------|-5-------(5)-0-0-0-||


 Chorus 1 & 2
  D5                           Bsus2    G5
  E. S S S E +S  S E S S S S   E. S S S E +S  S E S S S S
|-0--0-0-0-------------------|------0-0-5-(5)-5-5-5-5-0-0-|
|-0--0-0-0-------------------|------0-0-5-(5)-5-5-5-5-0-0-|
|-x--x-x-x-7-(7)-7-7-7-7-0-0-|-4--4-0-0-5-(5)-5-5-5-5-0-0-|
|-7--7-7-7-7-(7)-7-7-7-7-0-0-|-4--4-0-0-5-(5)-5-5-5-5-0-0-|
|-5--5-5-5-4-(4)-4-4-4-4-0-0-|-2--2-0-0-5-(5)-5-5-5-5-0-0-|
|-0--0-0-0-0-(0)-0-0-0-0-0-0-|------0-0-5-(5)-5-5-5-5-0-0-|


  Aadd4                     G5
  Q  E. S +S  S E S S S S   E S S E S S S S E S S S S
|-0--0--0-(0)-0-0-0-0-0-0-|-5-5-5-5-5-5-5-5-5-5-5-0-0-|
|-0--0--0-(0)-0-0-0-0-0-0-|-5-5-5-5-5-5-5-5-5-5-5-0-0-|
|-4--4--4-(4)-4-4-4-4-0-0-|-5-5-5-5-5-5-5-5-5-5-5-0-0-|
|-2--2--2-(2)-2-2-2-2-0-0-|-5-5-5-5-5-5-5-5-5-5-5-0-0-|
|-0--0--0-(0)-0-0-0-0-0-0-|-5-5-5-5-5-5-5-5-5-5-5-0-0-|
|-------------------------|-5-5-5-5-5-5-5-5-5-5-5-0-0-|


                                                     D.S.
  D5                           Bsus2    G5
  E. S S S E +S  S E S S S S   E. S S S E +Q   +S  S S S
|-0--0-0-0-------------------|------0-0-5-(5)--(5)-0-0-0--||
|-0--0-0-0-------------------|------0-0-5-(5)--(5)-0-0-0--||
|-x--x-x-x-7-(7)-7-7-7-7-0-0-|-4--4-0-0-5-(5)--(5)-0-0-0--||
|-7--7-7-7-7-(7)-7-7-7-7-0-0-|-4--4-0-0-5-(5)--(5)-0-0-0--||
|-5--5-5-5-4-(4)-4-4-4-4-0-0-|-2--2-0-0-5-(5)--(5)-0-0-0--||
|-0--0-0-0-0-(0)-0-0-0-0-0-0-|------0-0-5-(5)--(5)-0-0-0--||


  D5
  E. S S S E +S  S E S S S S
|-0--0-0-0-------------------|
|-0--0-0-0-------------------|
|-x--x-x-x-7-(7)-7-7-7-7-0-0-|
|-7--7-7-7-7-(7)-7-7-7-7-0-0-|
|-5--5-5-5-4-(4)-4-4-4-4-0-0-|
|-0--0-0-0-0-(0)-0-0-0-0-0-0-|
|
| Gtr III
|      PM|
| E. S S S E +S  S E S S S S
|-0--0-----------------------|
|-0--0-----------------------|
|-x--x-----7-(7)-7-7-7-7-0-0-|
|-7--7-----7-(7)-7-7-7-7-0-0-|
|-5--5-----4-(4)-4-4-4-4-0-0-|
|-0--0-0-0-0-(0)-0-0-0-0-0-0-|


  Bsus2    G5
                                          2/4
  E. S S S E +Q   +S  S S S    W            W
|------0-0-5-(5)--(5)-0-0-0-|------------|--------||
|------0-0-5-(5)--(5)-0-0-0-|------------|--------||
|-4--4-0-0-5-(5)--(5)-0-0-0-|------------|--------||
|-4--4-0-0-5-(5)--(5)-0-0-0-|------------|--------||
|-2--2-0-0-5-(5)--(5)-0-0-0-|------------|--------||
|------0-0-5-(5)--(5)-0-0-0-|------------|--------||
|
|                              >
| Q    S S E +H               +W           +H
|------0-0-5-(5)------------|-(5)--------|-(5)----||
|------0-0-5-(5)------------|-(5)--------|-(5)----||
|-4----0-0-5-(5)------------|-(5)--------|-(5)----||
|-4----0-0-5-(5)------------|-(5)--------|-(5)----||
|-2----0-0-5-(5)------------|-(5)--------|-(5)----||
|------0-0-5-(5)------------|-(5)--------|-(5)----||


   Interlude
    Bmadd9                   G5                D5
   4/4
    Gtr II
     Q.   S S +S  S Q  S S   Q  Q  +Q.   S S   Q  E. S +E  S S T T T T S S
||--^0------0-(0)-0--------|----5--(5)-----0-|-0--0--0-(0)-0-0---------0-0--|
||o-^0---------------------|----5--(5)-----0-|-0--0--0-(0)-0-0-2h4p2p0-0-0--|
||--^4--------------4--0-0-|----5--(5)-----0-|-0--0--0-(0)-0-0-0-------0-0--|
||--^4----4------------0-0-|-5--5--(5)---5-0-|-0--0--0-(0)-0-0-0-------0-0--|
||o-^2-----------------0-0-|-5-----------5-0-|-0----------------------------|
||---------------------0-0-|-5-----------5-0-|-0----------------------------|


  1.                                  2.
  Dsus2    D5                          Dsus2    D
                                   Gtr I
  E. S S S E +S  S S S T T T T S S     E. S S S E +S  S S S T T T T S S
|-0--0-0-0-0-(0)-0-0-0---------0-0--||-0--0-0-0-0-(0)-0-0-0---------0-0-|
|-2--2-2-2-0-(0)-0-0-0-2h4p2p0-0-0-o||-2--2-2-2-4-(4)-4-4-4-2h4p2p0-0-0-|
|-0--0-0-0-0-(0)-0-0-0-0-------4-0--||-0--0-0-0-0-(0)-0-0-0-0-------4-0-|
|-0--0-0-0-0-(0)-0-0-0-0------------||-0--0-0-0-0-(0)-0-0-0-0-----------|
|----------------------------------o||----------------------------------|
|-----------------------------------||----------------------------------|


  Bmadd9                    G5
  Q  E. S +S  S E S S S S   Q  E. S +S  S E S S S S
|----0--0-(0)-0-0-0-0-0-0-|----5--5-(5)-5-5-5-5-5-5-|
|----0--0-(0)-0-0-0-0-0-0-|----5--5-(5)-5-5-5-5-5-5-|
|----4--4-(4)-4-4-4-4-0-0-|----5--5-(5)-5-5-5-5-5-5-|
|-4--4--4-(4)-4-4-4-4-0-0-|-5--5--5-(5)-5-5-5-5-5-5-|
|-2--2--2-(2)-2-2-2-2-0-0-|-5--5--5-(5)-5-5-5-5-5-5-|
|-------------------------|-5--5--5-(5)-5-5-5-5-5-5-|


  D5
  PM--|                PM--|
  S E S H    S S S S   S E S H    S S S S
|-------0----0-0-0-0-|-------0----0---0-0-|
|-------0----0-0-0-0-|-------0----0---0-0-|
|-------0----5-5-5-5-|-------0----5s7-7-0-|
|-------0----0-0-0-0-|-------0----0---0-0-|
|-0-0-0-0----5-5-5-5-|-0-0-0-0----5s7-7-0-|
|-0-0-0-0------------|-0-0-0-0------------|


  Bmadd9                    G5                        D5
                                                      PM--|  ~~
  W                         W                         S E S  H     Q
|-------------------------|-------------------------|------------------------|
|-------------------------|-------------------------|-------12----12\--------|
|-------------------------|-------------------------|------------------------|
|-------------------------|-------------------------|------------------------|
|-------------------------|-------------------------|-0-0-0------------------|
|-------------------------|-------------------------|-0-0-0------------------|
|
| Gtr III
|                                                     PM--|
| Q  E. S +S  S E S S S S   Q  E. S +S  S E S S S S   S E S  H     S  S S S
|----0--0-(0)-0-0-0-0-0-0-|----5--5-(5)-5-5-5-5-5-5-|--------0-----0--0-0-0--|
|----0--0-(0)-0-0-0-0-0-0-|----5--5-(5)-5-5-5-5-5-5-|--------0-----0--0-0-0--|
|----4--4-(4)-4-4-4-4-0-0-|----5--5-(5)-5-5-5-5-5-5-|--------0-----5--5-5-5--|
|-4--4--4-(4)-4-4-4-4-0-0-|-5--5--5-(5)-5-5-5-5-5-5-|--------0-----0--0-0-0--|
|-2--2--2-(2)-2-2-2-2-0-0-|-5--5--5-(5)-5-5-5-5-5-5-|-0-0-0--0-----5--5-5-5--|
|-------------------------|-5--5--5-(5)-5-5-5-5-5-5-|-0-0-0--0---------------|


                              Guitar Solo
                               Bmadd9
  PM--|  ~~                               ~~~~~~~~~~~~~~             ~~~~~
  S E S  H     +E     S   S     a  E.    +S   +Q     Q       E    a  E
|---------------------------||-------------------------------------------|
|-------14----(14)\-----/16-||-14h16b17r(16)-(16)---16------17---17s19---|
|---------------------------||-------------------------------------------|
|---------------------------||-------------------------------------------|
|-0-0-0---------------------||-------------------------------------------|
|-0-0-0---------------------||-------------------------------------------|
|
| PM--|
| S E S  H      S   S S   S        Q           E. S +S  S E  S S     S S
|--------0------0-----0---0-||-----------------0--0-(0)-0-0--0-0-----0-0-|
|--------0------0-----0---0-||-----------------0--0-(0)-0-0--0-0-----0-0-|
|--------0------5s==7-7---0-||-----------------4--4-(4)-4-4--4-4-----0-0-|
|--------0------0-----0---0-||-----4-----------4--4-(4)-4-4--4-4-----0-0-|
|-0-0-0--0------5s==7-7---0-||-----2-----------2--2-(2)-2-2--2-2-----0-0-|
|-0-0-0--0------------------||-------------------------------------------|


  G5
 ~~~~~~              ~~~~~~~~~
   +E. S  T  T  T T  E    +Q       E      S  S
|----------------------------------------------|
|-(19)-0-17h21p17p0-17---(17)-----17\---/16-16-|
|----------------------------------------------|
|----------------------------------------------|
|----------------------------------------------|
|----------------------------------------------|
|
|   Q     E.           S  +S  S E  S  S   S  S
|---------5------------5--(5)-5-5--5--5---5--5-|
|---------5------------5--(5)-5-5--5--5---5--5-|
|---------5------------5--(5)-5-5--5--5---5--5-|
|---5-----5------------5--(5)-5-5--5--5---5--5-|
|---5-----5------------5--(5)-5-5--5--5---5--5-|
|---5-----5------------5--(5)-5-5--5--5---5--5-|


  D5
   T   T  T  T  T  T  T  T  T  T  T  T  T  T  T  T  T   T  T  T  T  T  T  T  T  T  T  T  T  T  T  T
|----------------------------------------------------------------------------------------------------|
|-19--16----------16-19-16----------16-17-16-----------16-17-16----------16-17-16----16-19-16----16--|
|--------17-16-17----------17-16-17----------17-16-17-----------17-16-17----------17----------17-----|
|----------------------------------------------------------------------------------------------------|
|----------------------------------------------------------------------------------------------------|
|----------------------------------------------------------------------------------------------------|
|
|  E.                 S     S     S     E          +S      S     E           S     S     S     S
|--0------------------0-----0-----0------------------------------------------------------------------|
|--0------------------0-----0-----0------------------------------------------------------------------|
|--x------------------x-----x-----x-----7----------(7)-----7-----7-----------7-----7-----0-----0-----|
|--7------------------7-----7-----7-----7----------(7)-----7-----7-----------7-----7-----0-----0-----|
|--5------------------5-----5-----5-----4----------(4)-----4-----4-----------4-----4-----0-----0-----|
|--0------------------0-----0-----0-----0----------(0)-----0-----0-----------0-----0-----0-----0-----|


  Bsus2                                G5
                                                                                   |------5------|
   T   T  T  T  T  T  T  T  T  T  T  T  T  T  T  T  T   T  T  T  T  T  T  T  E     T  T  T    T  T
|---------------------------------------------------------------------------------------------------|
|-21--16----------16-21-16-------------16-----------------16----------------16\---------------------|
|--------17-16-17----------17-16-17-19----19-17-16-17--19----19-17-16-17-19-------------16---17-17--|
|---------------------------------------------------------------------------------12s17-------------|
|---------------------------------------------------------------------------------------------------|
|---------------------------------------------------------------------------------------------------|
|
|  E.                 S     S     S     E          +S      S     E           S  S  S       S
|---------------------------0-----0-----5----------(5)-----5-----5-----------5--5--0-------0--------|
|---------------------------0-----0-----5----------(5)-----5-----5-----------5--5--0-------0--------|
|--4------------------4-----0-----0-----5----------(5)-----5-----5-----------5--5--0-------0--------|
|--4------------------4-----0-----0-----5----------(5)-----5-----5-----------5--5--0-------0--------|
|--2------------------2-----0-----0-----5----------(5)-----5-----5-----------5--5--0-------0--------|
|---------------------------0-----0-----5----------(5)-----5-----5-----------5--5--0-------0--------|


  Bmadd9
                                                                                                   ~~
   |----------10:8------------|  |------------10:8-------------|  |------------10:8-------------|
   T  T  T  T  T  T  T  T  T  T  T   T  T  T  T  T  T  T    T  T  T   T  T    T  T  T  T  T  T  T  E    S  S
|------------------------------------------------------------------------------------------------------------|
|------------------------------------------------------------------------------------------------------------|
|-20-20-17-16-17-21-21-17-16-17-19--19-17------------------16-17-19--19-17---16-17-20-20-17-16-17-17---17-16-|
|-----------------------------------------19-19-16-16-19-----------------------------------------------------|
|------------------------------------------------------------------------------------------------------------|
|------------------------------------------------------------------------------------------------------------|
|
|  Q                             E.                      S       +S        S        E              S S  S  S
|--------------------------------0-----------------------0-------(0)-------0--------0--------------0-0--0--0-|
|--------------------------------0-----------------------0-------(0)-------0--------0--------------0-0--0--0-|
|--------------------------------4-----------------------4-------(4)-------4--------4--------------4-4--0--0-|
|--4-----------------------------4-----------------------4-------(4)-------4--------4--------------4-4--0--0-|
|--2-----------------------------2-----------------------2-------(2)-------2--------2--------------2-2--0--0-|
|------------------------------------------------------------------------------------------------------------|


  G5
   T  T  T  T  T  T  T  T  T   T  T  T  T  T  T  T  T   T  T  T  T  T  T  T  E    S  S
|--------------------------------------------------------------------------------------|
|-19-17-16-----------------------------------------------------------------------------|
|----------19-17-16-19-17-16-----------19-17-16----------------------------------------|
|-----------------------------19-17-16----------19-17--16-19-17-19-19-[0]-0------------|
|---------------------------------------------------------------------------17---\9s17-|
|--------------------------------------------------------------------------------------|
|
|  Q                       E.                 S    +S      S     E           S S  S  S
|--------------------------5------------------5----(5)-----5-----5-----------5-5--5--5-|
|--------------------------5------------------5----(5)-----5-----5-----------5-5--5--5-|
|--------------------------5------------------5----(5)-----5-----5-----------5-5--5--5-|
|--5-----------------------5------------------5----(5)-----5-----5-----------5-5--5--5-|
|--5-----------------------5------------------5----(5)-----5-----5-----------5-5--5--5-|
|--5-----------------------5------------------5----(5)-----5-----5-----------5-5--5--5-|


  D5
   |-------6:8-------|  |------6:8-------|  |-------6:8-------|
   T   T  T  T  T    T  T  T    T  T  T  T  T   T    T  T  T  T  E    +S   S
|----------------------------------------------------------------------------|
|---------------------------------------19-----------------------------------|
|--------------16---19-16-17------16-17----16--17------16-17-19-16---(16)\---|
|-----16-19-17-----------------19-------------------19---------------------0-|
|-17-------------------------------------------------------------------------|
|----------------------------------------------------------------------------|
|
|  E.             S     S    S     E       +S     S     E        S S   S   S
|--0--------------0-----0----0-----------------------------------------------|
|--0--------------0-----0----0-----------------------------------------------|
|--x--------------x-----x----x-----7-------(7)----7-----7--------7-7---0---0-|
|--7--------------7-----7----7-----7-------(7)----7-----7--------7-7---0---0-|
|--5--------------5-----5----5-----4-------(4)----4-----4--------4-4---0---0-|
|--0--------------0-----0----0-----0-------(0)----0-----0--------0-0---0---0-|


              Bsus2                             G5
   a       a   Q       a       a   E         a   +S      a     +S   +E     S S S S S S
|-22b23==(22)-22b24---22b23==(22)-22b24====(22)r(22)b25r22b25-(22)-(22)\---------------|
|--------------------------------------------------------------------------------------|
|--------------------------------------------------------------------------5-5-7-7---0-|
|--------------------------------------------------------------------------x-x-x-x---0-|
|--------------------------------------------------------------------------5-5-7-7---0-|
|----------------------------------------------------------------------------------0---|
|
|              E.   S              S     S        E                 +S   S E   S S S S
|----------------------------------0-----0--------5-----------------(5)--5-5---5-5-0-0-|
|----------------------------------0-----0--------5-----------------(5)--5-5---5-5-0-0-|
|--------------4----4--------------0-----0--------5-----------------(5)--5-5---5-5-0-0-|
|--------------4----4--------------0-----0--------5-----------------(5)--5-5---5-5-0-0-|
|--------------2----2--------------0-----0--------5-----------------(5)--5-5---5-5-0-0-|
|----------------------------------0-----0--------5-----------------(5)--5-5---5-5-0-0-|


  Bmadd9                                     G5
            ~~~                               ~~~
  Q.       +E    +Q      a     +E    +S  S    Q.     E     H
|------------------------------------------|-19---------------------------||
|------------------------------------------|------------------------------||
|------------------------0-----------------|------------------------------||
|------------------------x-----------------|---------x\----x\-------------||
|-7b9======(7)---(7)-----7pb9==(7)r==(7)p0-|---------x\----x\-------------||
|------------------------------------------|------------------------------||
|
| Q     E.     S +S  S E        S  S  S  S    Q   E.    S +S  S E S S S S
|-------0------0-(0)-0-0--------0--0--0--0-|------5-----5-(5)-5-5-5-5-5-5-||
|-------0------0-(0)-0-0--------0--0--0--0-|------5-----5-(5)-5-5-5-5-5-5-||
|-------4------4-(4)-4-4--------4--4--0--0-|------5-----5-(5)-5-5-5-5-5-5-||
|-4-----4------4-(4)-4-4--------4--4--0--0-|--5---5-----5-(5)-5-5-5-5-5-5-||
|-2-----2------2-(2)-2-2--------2--2--0--0-|--5---5-----5-(5)-5-5-5-5-5-5-||
|------------------------------------------|--5---5-----5-(5)-5-5-5-5-5-5-||


 Chorus 3
  D5                           Bsus2    G5
  E. S S S E +S  S E S S S S   E. S S S E +S  S E S S S S
|-0--0-0-0-------------------|------0-0-5-(5)-5-5-5-5-0-0-|
|-0--0-0-0-------------------|------0-0-5-(5)-5-5-5-5-0-0-|
|-x--x-x-x-7-(7)-7-7-7-7-0-0-|-4--4-0-0-5-(5)-5-5-5-5-0-0-|
|-7--7-7-7-7-(7)-7-7-7-7-0-0-|-4--4-0-0-5-(5)-5-5-5-5-0-0-|
|-5--5-5-5-4-(4)-4-4-4-4-0-0-|-2--2-0-0-5-(5)-5-5-5-5-0-0-|
|-0--0-0-0-0-(0)-0-0-0-0-0-0-|------0-0-5-(5)-5-5-5-5-0-0-|


  Bmadd9                    G5
  Q  E. S +S  S E S S S S   Q  E. S +S  S E S S S S
|----0--0-(0)-0-0-0-0-0-0-|----5--5-(5)-5-5-5-5-5-5-|
|----0--0-(0)-0-0-0-0-0-0-|----5--5-(5)-5-5-5-5-5-5-|
|----4--4-(4)-4-4-4-4-0-0-|----5--5-(5)-5-5-5-5-5-5-|
|-4--4--4-(4)-4-4-4-4-0-0-|-5--5--5-(5)-5-5-5-5-5-5-|
|-2--2--2-(2)-2-2-2-2-0-0-|-5--5--5-(5)-5-5-5-5-5-5-|
|-------------------------|-5--5--5-(5)-5-5-5-5-5-5-|


  D5                           Bsus2    G5
  E. S S S E +S  S E S S S S   E. S S S E +S  S E S S S S
|-0--0-0-0-------------------|------0-0-5-(5)-5-5-5-5-0-0-|
|-0--0-0-0-------------------|------0-0-5-(5)-5-5-5-5-0-0-|
|-x--x-x-x-7-(7)-7-7-7-7-0-0-|-4--4-0-0-5-(5)-5-5-5-5-0-0-|
|-7--7-7-7-7-(7)-7-7-7-7-0-0-|-4--4-0-0-5-(5)-5-5-5-5-0-0-|
|-5--5-5-5-4-(4)-4-4-4-4-0-0-|-2--2-0-0-5-(5)-5-5-5-5-0-0-|
|-0--0-0-0-0-(0)-0-0-0-0-0-0-|------0-0-5-(5)-5-5-5-5-0-0-|


  Aadd4                     G5
  Q  E. S +S  S E S S S S   E S S E S S S S E S S S S
|-0--0--0-(0)-0-0-0-0-0-0-|-5-5-5-5-5-5-5-5-5-5-5-0-0-|
|-0--0--0-(0)-0-0-0-0-0-0-|-5-5-5-5-5-5-5-5-5-5-5-0-0-|
|-4--4--4-(4)-4-4-4-4-0-0-|-5-5-5-5-5-5-5-5-5-5-5-0-0-|
|-2--2--2-(2)-2-2-2-2-0-0-|-5-5-5-5-5-5-5-5-5-5-5-0-0-|
|-0--0--0-(0)-0-0-0-0-0-0-|-5-5-5-5-5-5-5-5-5-5-5-0-0-|
|-------------------------|-5-5-5-5-5-5-5-5-5-5-5-0-0-|


  D5                           Bsus2    G5
  E. S S S E +S  S E S S S S   E. S S S E +S  S E S S S S
|-0--0-0-0-------------------|------0-0-5-(5)-5-5-5-5-0-0-|
|-0--0-0-0-------------------|------0-0-5-(5)-5-5-5-5-0-0-|
|-x--x-x-x-7-(7)-7-7-7-7-0-0-|-4--4-0-0-5-(5)-5-5-5-5-0-0-|
|-7--7-7-7-7-(7)-7-7-7-7-0-0-|-4--4-0-0-5-(5)-5-5-5-5-0-0-|
|-5--5-5-5-4-(4)-4-4-4-4-0-0-|-2--2-0-0-5-(5)-5-5-5-5-0-0-|
|-0--0-0-0-0-(0)-0-0-0-0-0-0-|------0-0-5-(5)-5-5-5-5-0-0-|


 Outro
  D
  S S S S S S S S E S S E S S   S S S S S S S S S S E S S S S
|-0---0-0---0---0-0-0-0-0-----|-0---0-0---0-0-0---0-0-0-0-----|
|-0---0-0---0---0-0-0-0-0-----|-0---0-0---0-0-0---0-0-0-0-----|
|-7s9-9-9s7-7s5-5-5-0-0-0-7-7-|-7s9-9-9s7-7-0-9s5-5-5-5-5-7-7-|
|-0---0-0---0---0-0-0-0-0-0-0-|-0---0-0---0-0-0---0-0-0-0-0-0-|
|-7s9-9-9s7-7s5-5-5-0-0-0-0-0-|-7s9-9-9s7-7-0-9s5-5-5-5-5-0-0-|
|-0---0-0---0---0-0-0-0-0-0-0-|-0---0-0---0-0-0---0-0-0-0-0-0-|


  Bm              Gsus2      Asus4        D5
  S S S S S S S S Q  E S S   S S S S S E. H
|-0---0-0---0-0-0-0--0-0-0-|-0---0-0-----------*|
|-0---0-0---0-0-0-7--7-0-0-|-0---0-0-----------*|
|-7s9-9-9s7-7-0-0-0--0-0-0-|-5s7-7-7-0-4--5----*|
|-0---0-0---0-0-0-0--0-0-0-|-0---0-0-0-x--x----*|
|-x---x-x---x-0-0-x--x-0-0-|-x---x-x-0-4--5----*|
|-7s9-9-9s7-7-0-0-5--5-0-0-|-5s7-7-7-0-0--0----*|




--------------------------------------------------------------------------------


Duration Legend
---------------
W - whole; H - half; Q - quarter; E - 8th; S - 16th; T - 32nd; X - 64th; a - acciaccatura
+ - note tied to previous; . - note dotted; .. - note double dotted
Uncapitalized letters represent notes that are staccato (1/2 duration)
Irregular groupings are notated above the duration line
Duration letters will always appear directly above the note/fret number it represents the
duration for.  Duration letters with no fret number below them represent rests.  Multi-
bar rests are notated in the form Wxn, where n is the number of bars to rest for.  Low
melody durations appear below the staff

Tablature Legend
----------------
 h   - hammer-on
 p   - pull-off
 b   - bend
 pb  - pre-bend
 r   - bend release (if no number after the r, then release immediately)
 /\  - slide into or out of (from/to "nowhere")
 s   - legato slide
 S   - shift slide
 - natural harmonic
[n]  - artificial harmonic
n(n) - tapped harmonic
 ~   - vibrato
 tr  - trill
 T   - tap
 TP  - trem. picking
 PM  - palm muting
\n/  - tremolo bar dip; n = amount to dip
 \n  - tremolo bar down
 n/  - tremolo bar up
/n\  - tremolo bar inverted dip
 =   - hold bend; also acts as connecting device for hammers/pulls
 <> - volume swell (louder/softer)
 x   - on rhythm slash represents muted slash
 o   - on rhythm slash represents single note slash

Misc Legend
-----------
 |  - bar
||  - double bar
||o - repeat start
o|| - repeat end
*|  - double bar (ending)
 :  - bar (freetime)
 $  - Segno
 &  - Coda
Tempo markers -  = BPM(8/16=s8/s16), where s8 = swing 8ths, s16 = swing 16ths


Suggest correction
Give kudos to tab author, rate the tab!
1 2 3 4 5
comments
print report bad tab
guest
You may want to rate the tab now too:
select rating
Wanna post a correction for this tab? Suggest correction