Oops, an error
Loading. Please wait.

Open Your Eyes Tab

version 5
version 5

Interactive

5,197 views 9 this week
no commentswrite comment
1 2 3 4 5
accurate
x 3
add to favorites
launch autoscroll
font size
0
reset
how to read this tab
guitar tuner
Autoscroll
slow
fast
+/-
esc
set tempo
stop
Help us to improve Ultimate-Guitar.com Take our survey!
×
Author
-------------------------------------------------------------------------------
			     OPEN YOUR EYES - Alter Bridge
-------------------------------------------------------------------------------
Tabbed by: Danelg
Email:Dunder_danne@hotmail.com

Tuning:Standard (EADGBe)

I wanted to do the song with normal tuning cause I'm too lasy to set a different 
tuning for every song.

To me it sounds ok but it's not perfekt of course... If you find something wrong, just mail me. 
If you don't like some chords i do or something try set the chord in a different way or change it.

What i'm trying to say is thatyou don't have to follow my tab note by note.


In the mainriff you hav to hold your thumb over the E and A string so they wont 
sound, I'll mark that with (x)

Intro (distortion)
   E F#   E  D	     E F#   E F#   D 
e|-0-0-00-0-0-0--0---0-0-00-0-0--0-0-0--|
B|-0-0-00-0-0-0--0---0-0-00-0-0--0-0-0--|
G|-4/6-66-4-2-2--2---4/6-66-4-6--2-2-2--|
D|-2/4-44-2-0-0--0---2/4-44-2-4--0-0-0--|
A|-x-x-xx-x-x-x--x---x-x-xx-x-x--x-x-x--|
E|-x-x-xx-x-x-x--x---x-x-xx-x-x--x-x-x--|

   E F#   E    A      D E    C# D	
e|-0-0-00-0--0-0--0---0-0-00-0-00-0---|
B|-0-0-00-0--0-0--0---0-0-00-0-00-0---|
G|-6/8-88-6--9-9--9---2/4-44-1-22-2---|
D|-2/4-44-2--7-7--7---0/2-22-0-00-0---|  2x
A|-x-x-xx-x--x-x--x---x-x-xx-x-xx-x---|
E|-x-x-xx-x--x-x--x---x-x-xx-x-xx-x---|

Vers 1 (clean)	Here you can go with open or barré
   Bm		G		D
e|-2--------------3-------------------------------------------------------------|
B|-3--------------3-------------------------------------------------------------|
G|-4-----------0--0-----------4/6-66-4-2-2--2---4/6-66-4--9-9--9----------------|
D|-4---------0-0--0-----------0-0-00-0-0-0--0---0-0-00-0--0-0--0----------------|
A|-2---------2-2--2-----------2/4-44-2-0-0--0---2/4-44-2--7-7--7----------------|
E|-----------3----3-----------x-x-xx-x-x-x--x---x-x-xx-x--x-x--x----------------|

  Bm		G		D
e|-2--------------3-----------------------------------------------------------|
B|-3--------------3-----------------------------------------------------------|
G|-4-----------0--0-----------4/6-66-4--9-9--9---2/4-44-1-22-2----------------|
D|-4---------0-0--0-----------0-0-00-0--0-0--0---0-0-00-0-00-0----------------|
A|-2---------2-2--2-----------2/4-44-2--7-7--7---0/2-22-0-00-0----------------|
E|-----------3----3-----------x-x-xx-x--x-x--x---x-x-xx-x-xx-x----------------|

Pre-Chorus
  Bm	     G		      D2	Bm		G
e|-2---------3----------------5---------2---------------3~--------------------|
B|-3---------3----------------5---------3---------------3~--------------------|
G|-4---------4----------------7---------4---------------0~--------------------|
D|-4---------5----------------7---------4---------------0~--------------------|
A|-2---------5----------------5---------2---------------2~--------------------|
E|-----------3------------------------------------------3~--------------------|

Chorus (distortion)
Listen for strumming pattern
   D2	    A/C#      Bm	 G	   A		      G
e|-5-------------------7---------3---------5------------------3---------------|
B|-5-------------------7---------3---------5------------------3---------------|
G|-7---------7---------7---------4---------6------------------4---------------|
D|-7---------7---------9---------5---------7------------------5---------------|
A|-5---------7---------9---------5---------7------------------5---------------|
E|-----------9---------7---------3---------5------------------3---------------|

   D2	    A/C#      Bm	 G	   
e|-5-------------------7---------3----------|
B|-5-------------------7---------3----------|
G|-7---------7---------7---------4----------|
D|-7---------7---------9---------5----------|
A|-5---------7---------9---------5----------|
E|-----------9---------7---------3----------|

Meltro (post-chorus) almost the same as intro except you don't double the last part

   E F#   E  D	     E F#   E F#   D     E F#   E    A      D E    C# D
e|-0-0-00-0-0-0--0---0-0-00-0-0--0-0-0---0-0-00-0--0-0--0---0-0-00-0-00-0---|
B|-0-0-00-0-0-0--0---0-0-00-0-0--0-0-0---0-0-00-0--0-0--0---0-0-00-0-00-0---|
G|-4/6-66-4-2-2--2---4/6-66-4-6--2-2-2---6/8-88-6--9-9--9---2/4-44-1-22-2---|
D|-2/4-44-2-0-0--0---2/4-44-2-4--0-0-0---2/4-44-2--7-7--7---0/2-22-0-00-0---|
A|-x-x-xx-x-x-x--x---x-x-xx-x-x--x-x-x---x-x-xx-x--x-x--x---x-x-xx-x-xx-x---|
E|-x-x-xx-x-x-x--x---x-x-xx-x-x--x-x-x---x-x-xx-x--x-x--x---x-x-xx-x-xx-x---|


Vers 2 (clean) (Same as vers 1)
   Bm		G		D
e|-2--------------3-------------------------------------------------------------|
B|-3--------------3-------------------------------------------------------------|
G|-4-----------0--0-----------4/6-66-4-2-2--2---4/6-66-4--9-9--9----------------|
D|-4---------0-0--0-----------0-0-00-0-0-0--0---0-0-00-0--0-0--0----------------|
A|-2---------2-2--2-----------2/4-44-2-0-0--0---2/4-44-2--7-7--7----------------|
E|-----------3----3-----------x-x-xx-x-x-x--x---x-x-xx-x--x-x--x----------------|

  Bm		G		D
e|-2--------------3-----------------------------------------------------------|
B|-3--------------3-----------------------------------------------------------|
G|-4-----------0--0-----------4/6-66-4--9-9--9---2/4-44-1-22-2----------------|
D|-4---------0-0--0-----------0-0-00-0--0-0--0---0-0-00-0-00-0----------------|
A|-2---------2-2--2-----------2/4-44-2--7-7--7---0/2-22-0-00-0----------------|
E|-----------3----3-----------x-x-xx-x--x-x--x---x-x-xx-x-xx-x----------------|

Pre-Chorus
  Bm	     G		      D2	Bm		G
e|-2---------3----------------5---------2---------------3~--------------------|
B|-3---------3----------------5---------3---------------3~--------------------|
G|-4---------4----------------7---------4---------------0~--------------------|
D|-4---------5----------------7---------4---------------0~--------------------|
A|-2---------5----------------5---------2---------------2~--------------------|
E|-----------3------------------------------------------3~--------------------|

Chorus (distortion)
Listen for strumming pattern
   D2	    A/C#      Bm	 G	   A		      G
e|-5-------------------7---------3---------5------------------3---------------|
B|-5-------------------7---------3---------5------------------3---------------|
G|-7---------7---------7---------4---------6------------------4---------------| 2x
D|-7---------7---------9---------5---------7------------------5---------------|
A|-5---------7---------9---------5---------7------------------5---------------|
E|-----------9---------7---------3---------5------------------3---------------|

   D2	    A/C#      Bm	 G	   
e|-5-------------------7---------3----------|
B|-5-------------------7---------3----------|
G|-7---------7---------7---------4----------|
D|-7---------7---------9---------5----------|
A|-5---------7---------9---------5----------|
E|-----------9---------7---------3----------|

Bridge (clean)
  Bm	     G	       D2
e|-2---------3--3------2--0h2p0---0-0----0h2p0--|
B|-2--2------3-----3---3--------3-3-3-3---------|
G|-3-----3---0---------2--------2-----2---------|  2x 
D|-4---------0---------0------------------------|
A|-4---------2----------------------------------|
E|-2---------3----------------------------------|

(distortion)
  Bm	     G		 D2	       D2
e|-2---------3-----------55--55--------55--55---|
B|-3---------3-----------55--55--------55--55---|
G|-4---------4-----------77--77--------77--77---|  2x
D|-4---------5-----------77--77--------77--77---|
A|-2---------5-----------55--55--------55--55---|
E|-----------3----------------------------------|

Solo (don't know the solo but others have tabbed it so check their versions out. 
Marks solo is amaicing and i can't tab it.
	sorry)
but here is what the second guitar probably plays.
   Bm	     G	     D2	  D2/C# Bm   G		   Bm		 G
e|-2---------3--------5----5----2----3---|	|--2-------------3-|
B|-3---------3--------5----5----3----3---|	|--3-------------3-|
G|-4---------4--------7----7----4----4---|  2x  |--4-------------4-| this leads to the last chorus
D|-4---------5--------7----7----4----5---|	|--4-------------5-|
A|-2---------5--------5----4----2----5---|	|--2-------------5-|
E|-----------3-----------------------3---|	|----------------3-|

Chorus (distortion)
Listen for strumming pattern
   D2	    A/C#      Bm	 G	   A		      G
e|-5-------------------7---------3---------5------------------3---------------|
B|-5-------------------7---------3---------5------------------3---------------|
G|-7---------7---------7---------4---------6------------------4---------------|2x
D|-7---------7---------9---------5---------7------------------5---------------|
A|-5---------7---------9---------5---------7------------------5---------------|
E|-----------9---------7---------3---------5------------------3---------------|

   D2	    A/C#      Bm	 G	   
e|-5-------------------7---------3----------|
B|-5-------------------7---------3----------|
G|-7---------7---------7---------4----------|
D|-7---------7---------9---------5----------|
A|-5---------7---------9---------5----------|
E|-----------9---------7---------3----------|

Outro (same as meltro)
   E F#   E  D	     E F#   E F#   D     E F#   E    A      D E    C# D
e|-0-0-00-0-0-0--0---0-0-00-0-0--0-0-0---0-0-00-0--0-0--0---0-0-00-0-00-0---|
B|-0-0-00-0-0-0--0---0-0-00-0-0--0-0-0---0-0-00-0--0-0--0---0-0-00-0-00-0---|
G|-4/6-66-4-2-2--2---4/6-66-4-6--2-2-2---6/8-88-6--9-9--9--2/4-44-1-22-2----|
D|-2/4-44-2-0-0--0---2/4-44-2-4--0-0-0---2/4-44-2--7-7--7---0/2-22-0-00-0---|
A|-x-x-xx-x-x-x--x---x-x-xx-x-x--x-x-x---x-x-xx-x--x-x--x---x-x-xx-x-xx-x---|
E|-x-x-xx-x-x-x--x---x-x-xx-x-x--x-x-x---x-x-xx-x--x-x--x---x-x-xx-x-xx-x---|


| /  slide up
| \  slide down
| h  hammer-on
| p  pull-off
| ~  vibrato
| +  harmonic
| x  Mute note
===============================================================================
Suggest correction
Give kudos to tab author, rate the tab!
1 2 3 4 5
comments
print report bad tab
guest
You may want to rate the tab now too:
select rating
Wanna post a correction for this tab? Suggest correction