Oops, an error
Loading. Please wait.

Rise Today Tab

version 1
version 1

Whole song

Interactive

29,573 views 9 this week
13 commentsread comments
1 2 3 4 5
accurate
x 9
add to favorites
launch autoscroll
font size
0
reset
how to read this tab
guitar tuner
Autoscroll
slow
fast
+/-
esc
set tempo
stop
Help us to improve Ultimate-Guitar.com Take our survey!
×
Contributor
Difficulty
Tuning
steve4991 178
intermediate
D A D G B E
Gtr. 1 Intro/ Verse

e------------------------------------------------------|
b----------3--------3--------3--------3-------3-----3--|
g-------------------------------------------0------0---|
d-------0---------0--------0--------0-----0------0-----|
a-----0---------0--------0--------0-----3------3-------|
d---0---------0--------3--------3----------------------|


--------------------------------|
--------------------------------|
------0---------0---------------|
----0---0-----0---0-------------|
--------------------------------|
--5---------3-------------------|

Gtr. 2 Intro/Verse

----------12---------12------|
------15----------15---------|
--14----------14-------------| repeat as necessary
-----------------------------|
-----------------------------|
-----------------------------|

Pre Chorus

------------------------------|
--6-----------8---------------|
--5-----------7---------------|
--3-----------5---------------|
--3-----------5---------------|
--3-----------5---------------|

Chorus

----------------------------------------------|
----------------------------------------------|
-------------------------5---5---5-5-5--5-----|
-0--0--0--0-0-0--0--0----5---5---5-5-5--5-----|
-0--0--0--0-0-0--0--0----3---3---3-3-3--3-----|
-0--0--0--0-0-0--0--0-------------------------|

------------------------------------------|
------------------------------------------|
---------4---4-4--------------------------|
--3--3---5---5-5---5-5-5---0--------------| x2
--3--3---2---2-2---5-5-5---0--------------|
--3--3-------------5-5-5---0--------------|

Pre Verse - (2nd Guitar Intro/Verse)

Verse 2

--------------------------------------------------------|
--------------------------------------------6-----------|
-------------------------5--5--5-5----------7-----------|
-0--0--0-0pm0pm---3--3---5--5--5-5--5-5--5--5-----------| x4
-0--0--0-0pm0pm---3--3---3--3--3-3--5-5--5--5-----------|
-0--0--0-0pm0pm---3--3--------------5-5--5--5-----------|

Verse 2 Gtr.1 Fill

------------------8----------------------------------------------|
--8b10r8----10~------10-9-8--6-8-10p8p6--8--6-----6--------------|
-----------------------------------------------7----7~~----------|
-----------------------------------------------------------------|
-----------------------------------------------------------------|
-----------------------------------------------------------------|

Pre Chorus Gtr.1

--------------------------------|
--------------------------------|
--10-10-10-10-9-9-9-------------|
--------------------------------|
--8--8--8--8--8-8-8-------------|
--------------------------------|

Chorus x2

Bridge


-------------------------------------------------------------|
-------------------------------------------------------------|
----------12------------12----5--5-5--4---4-4-4-4------------|
--8--8--8------8--8--8----------------5----5-5-5-5-----------|
--8--8--8-10---8--8--8-10----3--3-3--2----2-2-2-2------------|
--8--8--8------8--8--8---------------------------------------|

-----------------------------------------------------------|
-----------------------------------------------------------|
-----------------------------------------------------------|
----------3------------------------------------3-----------|
---5--3------5---------------5---3------5--3------5--------|
-0------0-------0---5--3--0----------0-------0-------------|

---------------------------------------------------|
---------------------------------------------------|
---------------------------------------------------|
--3--3h5p3----3------------------------------------|
------------5---5-3-----------3~-------------------|
---------------------5--3--5-----------------------|

-----------------------------------------------------------|
-----------------------------------------------------------|
----------12-----------12----5--5-5--4----4-4-4-4----------|
--8--8--8------8--8--8---------------5----5-5-5-5----------|
--8--8--8-10---8--8--8-10----3--3-3--2----2-2-2-2----------|
--8--8--8------8--8--8-------------------------------------|

Gtr.1
Trem. Flutter...................
-----------------------------------------------------------------------------|
--10--8~~8~~8~~8~~-----10h13p10h13p10h13p10h13p10h13p10----19b---\\\\\\\\----|
-----------------------------------------------------------------------------|
-----------------------------------------------------------------------------|
-----------------------------------------------------------------------------|
-----------------------------------------------------------------------------|

-----------------------------------------------------------|
-----------------------------------------------------------|
----------12-----------12----5--5-5--4----4-4-4-4----------|
--8--8--8------8--8--8---------------5----5-5-5-5----------| x2
--8--8--8-10---8--8--8-10----3--3-3--2----2-2-2-2----------|
--8--8--8------8--8--8-------------------------------------|

Chorus (clean)

Chorus

Solo

--------------------------------------------------8~~------|
--7-8-10-8-7---7-8-10-8-7~---------8b10r6---8p6------------|
-------------9--------------5pm7pm-------------------------|
-----------------------------------------------------------|
-----------------------------------------------------------|
-----------------------------------------------------------|

---------10-13---16-17--20~20~-------------------------------------|
--10-13-------------------------18-20-20b22r20--18-20----18-20-----|
-------------------------------------------------------19------19--|
-------------------------------------------------------------------|
-------------------------------------------------------------------|
-------------------------------------------------------------------|

--22-20--18b19--------------------16-17-16-17-16-17-17-17-16-17------|
----------------20-19------------------------------------------------|
----------------------19-19~~----------------------------------------|
---------------------------------------------------------------------|
---------------------------------------------------------------------|
---------------------------------------------------------------------|

--17-17-16-16-16-15-15-14-----------------8h10p8------8-----------|
--------------------------15-15-15h17p15---------10-8----10-------|
------------------------------------------------------------------|
------------------------------------------------------------------|
------------------------------------------------------------------|
------------------------------------------------------------------|

--10-10-10-13-13-10-10-10-10-15-10-10-10-13-13-10-10-10-10-15-----|
------------------------------------------------------------------|
------------------------------------------------------------------|
------------------------------------------------------------------|
------------------------------------------------------------------|
------------------------------------------------------------------|

--10h13p10----------10h13p10--7h8p7-5------------------------------|
-----------13p10h13-------------------8-7-5-7----------------15~~--|
-----------------------------------------------7-5-----------------|
----------------------------------------------------5-4------------|
-------------------------------------------------------------------|
-------------------------------------------------------------------|

Outro

-------------------------------------------------------|
-------------------------------------------------------|
-----------4-----4-4-----------------------------------|
-3--3-3----5-----5-5--5-5--3b--0-----------------------|
-3--3-3----2-----2-2--5-5--3b--0-----------------------|
-3--3-3---------------5-5--3b--0-----------------------|
comments
print report bad tab
13 comments total. Showing first comments.
0 reply
tuluks 477 wrote on July 26 2007, 03:16 pm

hmm.. that was quik. will rate after i get my guitar and play along. is this from the unclear radio version? looks good so far.

0 reply
steve4991 178 wrote on July 26 2007, 03:52 pm

yeah, but i hear no difference between the radio version and the official version

0 reply
tuluks 477 wrote on July 30 2007, 03:56 pm

its good! 5 stars.
this guy on youtube plays open D tuning - DADADD.
chek it out if ya havent:
http://youtube.com/watch?v=aZZwQhsJ-2M

october 9th - the day of reckoning.

I want to post or [tab]
guest
You may want to rate the tab now too:
select rating
Please do not post tabs as comments. Select "correction" instead!