Oops, an error
Loading. Please wait.

Slip To The Void Bass Tab

version 1
version 1

Whole song

2,335 views 1 this week
no commentswrite comment
1 2 3 4 5
please rate
add to favorites
launch autoscroll
font size
0
reset
guitar tuner
Tab Pro tools
  • play this tab
  • loop segment
  • change instrument
  • show fretboard
  • metronome
×
Best way to learn
"Slip To The Void"
Autoscroll
slow
fast
+/-
esc
set tempo
stop
Difficulty
Tuning
intermediate
A E A D F# B
-----------------------------------------------------------------------------
			     Slip to the void - Alter Bridge
-----------------------------------------------------------------------------

Tabbed By : Pete Kelley
e-mail: pfkelley9@yahoo.com

First tab ever, I'm pretty sure I've got all the notes right, it's just a matter of 
finding out the timing on your on.

Tuning: high to low ( G, D , A , E, A )

Intro x 3: (52sec)

G|---------------------------------------------------------------------------|
D|---------------------------------------------------------------------------|
A|---------------------------------------------------------------------------|
E|---------------------------------------------------------------------------|
A|----0----2----4------------------------------------------------------------|

Preverse(not sure if that's a real term) x 2:

G|---------------------------------------------------------------------------|
D|---------------------------------------------------------------------------|
A|---------------------------------------------------------------------------|
E|---------------------------------------------------------------------------|
A|----2-4-2-4-2-4-2-4-2-4-2--------------------------------------------------|

Verse

G|---------------------------------------------------------------------------|
D|---------------------------------------------------------------------------|
A|---------------------------------------------------------------------------|
E|-5p4-2p0-2h4-------2-----0---------5p4-2p0-2h4-------2-----0---------------|
A|------------4-2h444-5-555-4-444---------------4-2h444-5-555-4-444----------|

G|---------------------------------------------------------------------------|
D|---------------------------------------------------------------------------|
A|--2--------2---------------------------------------------------------------|
E|-----0h2h4---4-2h4-----5-55555----5p4-2p0-2h4-------2-----0----------------|
A|-2------------------0------------------------4-2h444-5-555-4-444-----------|

G|---------------------------------------------------------------------------|
D|---------------------------------------------------------------------------|
A|---------------------------------------------------------------------------|
E|---55555555555555555555555555557-------------------------------------------|
A|---------------------------------------------------------------------------|

Chorus

G|---------------------------------------------------------------------------|
D|---------------------------------------------------------------------------|
A|---------------------------------------------------------------------------|
E|----------------5-5-555555555----------5p4-2p0-2h4-------------------------|
A|4-4-4-44444h7--(0-0-000000000)-0-2-4-5------------4-444-4-4----------------|

G|---------------------------------------------------------------------------|
D|---------------------------------------------------------------------------|
A|---------------------------------------------------------------------------|
E|---------------5-5-555555555---------------5-5-----------------------------|
A|4-4-4-44444h7-(0-0-000000000)-0-2-4-5--555-----7-7--4-4-4------------------|

Building Riff x 2 :

G|---------------------------------------------------------------------------|
D|---------------------------------------------------------------------------|
A|----------------2h4--------2h5-55555------2h4------------------------------|
E|---------------------------------------------------------------------------|
A|444444444444444-----4-4444-----------4444-----4444444445555555-------------|

Guitar Solo ("look at what you've done"):

G|---------------------------------------------------------------------------|
D|---------------------------------------------------------------------------|
A|------------------PLAY ONCE,THEN GO BACK TO BUILDING RIFF,THEN REPEAT------|
E|---------------2-2-22-0-0-00-----------------------------------------------|
A|7-7-77-2-2-22--------------------------------------------------------------|

G|----------------------------------------------------------------------------|
D|----------------------------------------------------------------------------|
A|----------------------------------------------------------------------------|
E|---------------2-2-22-0-0-00------------------------------------------------|
A|7-7-77-2-2-22-----------------2-4-2-4-2-4-2-4-2-4-2-|-2-4-2-4-2-4-2-4-2-4-2-|

Chorus

G|---------------------------------------------------------------------------|
D|---------------------------------------------------------------------------|
A|---------------------------------------------------------------------------|
E|----------------5-5-555555555-------------5p4-2p0-2h4----------------------|
A|4-4-4-44444h7--(0-0-000000000)-0-2-4-5---------------44-4-4----------------|

G|---------------------------------------------------------------------------|
D|---------------------------------------------------------------------------|
A|---------------------------------------------------------------------------|
E|----------------------------------------5-5--------------------------------|
A|4-4-4-44444h7--0-0-0000000-0-2-4-5--555-----7-7----------------------------|

Ending x 3:

G|---------------------------------------------------------------------------|
D|---------------------------------------------------------------------------|
A|---------------------------------------------------------------------------|
E|-5p4-2p0-2h4-------2-----0---------5p4-2p0-2h4-------2-----0---------------|
A|------------4-2h444-5-555-4-444---------------4-2h444-5-555-4-444----------|
comments
We did not receive enough feedback on this tab! Please rate:
print report bad tab
1 2 3 4 5
I want to post or [tab]
guest
You may want to rate the tab now too:
select rating
Please do not post tabs as comments. Select "correction" instead!